Descendents - Get The Time Chords & Tabs

 

Get The Time Chords & Tabs

Descendents Chords & Tabs

Version: 1 Type: Tab 0 ratings
1 star 2 stars 3 stars 4 stars 5 stars
comments

Get The Time Tab

!-----------------------------------------------------------
                  Get The Time - Descendents
-----------------------------------------------------------

By: denabob

Not perfect, but a pretty good approximation of this classic
punk "love song" from Enjoy, Liveage, and Somery.  

"Happiness is questing ALL."
-----------------------------------------------------------
Song Structure:
Intro - Figure 1 - Figure 2 - Figure 3 - Figure 2 -  
Figure 3 - Figure 4 - Figure 2 - Figure 2 - Figure 1 - 
Figure 2 - Figure 3 - Figure 2 - Figure 3 - Figure 4 - 
Figure 2 - Figure 2 - Figure 1 (end on an open G chord)
-----------------------------------------------------------

Intro: ("When I get the time, I'd like to sit down...")
e|---------|------------|----------------------------------|
B|---------|------------|----------------------------------|
G|----7--5-|------------|-----------5--5-5-5-5--7-7-7-7----|
D|-5--7--5-|-5--9--3--2-|-7--7-7-7--5--5-5-5-5--7-7-7-7----|
A|-5--5--3-|-5--9--3--2-|-7--7-7-7--3--3-3-3-3--5-5-5-5----|
E|-3-------|-3--7--1--0-|-5--5-5-5-------------------------|
  <---let chords ring--->

e|---------------------------------------------------------|
B|---------------------------------------------------------|
G|-7-7-7-7-------------------------------------------------|
D|-7-7-7-7-------------------------------------------------|
A|-5-5-5-5-------------------------------------------------|
E|---------------------------------------------------------|


Figure 1: 
e|-3---3-2---2-3-----3-----3---|-3---3-2---2-3-----3---3---|
B|---3-----3-----3-1---3-1---3-|---3-----3-----3-1---1---3-|
G|-----------------------------|---------------------------|
D|-----------------------------|---------------------------|
A|-----------------------------|---------------------------|
E|-----------------------------|---------------------------|


Figure 2: ("When I get the time, I'd like to sit down...")
e|----------------|-------------|-------------|------------|
B|----------------|-------------|-------------|------------|
G|-12-11-12-X-X-X-|-7-6-7-X-X-X-|-5-4-5-X-X-X-|-5-7-7------|
D|-12-11-12-X-X-X-|-7-6-7-X-X-X-|-5-4-5-X-X-X-|-5-7-7------|
A|-10--9-10-X-X-X-|-5-4-5-X-X-X-|-3-2-3-X-X-X-|-3-5-5------|
E|----------------|-------------|-------------|------------|

[ Tab from: http://www.guitartabs.cc/tabs/d/descendents/get_the_time_tab.html ]
Figure 3: (Write a little rhyme for you...")
e|----------------|------------------|---------------------|
B|----------------|------------------|---------------------|
G|-12-11-12-X-X-X-|------10-10-10-10-|-10-9-X-9-9-9--------|
D|-12-11-12-X-X-X-|-9-9--10-10-10-10-|-10-9-X-9-9-9--------|
A|-10--9-10-X-X-X-|-9-9---8--8--8--8-|--8-7-X-7-7-7--------|
E|----------------|-7-7--------------|---------------------|

e|--------------|--------------|---------------------------|
B|--------------|--------------|---------------------------|
G|--------------|-5-5--5-5-5-5-|-7-X-7-X-7--7-7-7--7-7-7-7-|
D|-7-7--7-7-7-7-|-5-5--5-5-5-5-|-7-X-7-X-7--7-7-7--7-7-7-7-|
A|-7-7--7-7-7-7-|-3-3--3-3-3-3-| 5-X-5-X-5--5-5-5--5-5-5-5-|
E|-5-5--5-5-5-5-|--------------|---------------------------|


Figure 4 ("Will there come a day..."):
e|----------------------------|----------------------------|
B|----------------------------|----------------------------|
G|---------------9-9--9-9-9-9-|---------------9-9--9-9-9-9-|
D|-9-9--9-9-9-9--9-9--9-9-9-9-|-9-9--9-9-9-9--9-9--9-9-9-9-|
A|-9-9--9-9-9-9--7-7--7-7-7-7-|-9-9--9-9-9-9--7-7--7-7-7-7-|
E|-7-7--7-7-7-7---------------|-7-7--7-7-7-7---------------|

e|--------------|--------------|--------------|------------|
B|--------------|--------------|--------------|------------|
G|-5-5--5-5-5-5-|--------------|--------------|-7-7-7-7----|
D|-5-5--5-5-5-5-|-5-5--5-5-5-5-|-7-7--7-7-7-7-|-7-7-7-7----|
A|-3-3--3-3-3-3-|-5-5--5-5-5-5-|-7-7--7-7-7-7-|-5-5-5-5----|
E|--------------|-3-3--3-3-3-3-|-5-5--5-5-5-5-|------------|

e|---------|-----------------------------|-----------------|
B|---------|-----------------------------|-----------------|
G|-7-7-7-7-|-5-5-------7--7-7-7--7-7-7-7-|-5-5-------------|
D|-7-7-7-7-|-5-5--5-5--7--7-7-7--7-7-7-7-|-5-5--5-5--------|
A|-5-5-5-5-|-3-3--5-5--5--5-5-5--5-5-5-5-|-3-3--5-5--------|
E|---------|------3-3--------------------|------3-3--------|

e|-------------------|-------------------------------------|
B|-------------------|-------------------------------------|
G|-7--7-7-7--7-7-7-7-|-------------------------------------|
D|-7--7-7-7--7-7-7-7-|-7-7--9-9--10-10-10--10-10-10-10-----|
A|-5--5-5-5--5-5-5-5-|-7-7--9-9--10-10-10--10-10-10-10-----|
E|-------------------|-5-5--7-7---8--8--8---8--8--8--8-----|

e|---------------------------------------------------------|
B|---------------------------------------------------------|
G|-7-X-7-X-7--7-7-7--7-7-7-7-------------------------------|
D|-7-X-7-X-7--7-7-7--7-7-7-7-------------------------------|
A|-5-X-5-X-5--5-5-5--5-5-5-5-------------------------------|
E|---------------------------------------------------------|

============================================================
Comments