Descendents - Dog And Pony Show Chords & Tabs

 

Dog And Pony Show Chords & Tabs

Descendents Chords & Tabs

Version: 1 Type: Tab 0 ratings
1 star 2 stars 3 stars 4 stars 5 stars
comments

Dog And Pony Show Tab

Intro: Play 3x

E|---------------------------------|
B|---------------------------------|
G|---------1111--11-----------777--|
D|--77--11-1111--11-1111--11--777--|
A|--77--11--9-9---9--8-8---8--555--|
E|--55---9-------------------------|

Verse:

(Another night...)
E|-------------------------------------------|
B|-------------------------------------------|
G|-------------------------------------------|
D|--77--99-9--77--99-9--77--99--------4-3----|
A|--77--77-7--77--77-7--77--77------4-----4--|
E|--55--55-5--55--55-5--55--55--1/2----------|

(Abandoned in...)
E|------------------------------------------|
B|------------------------------------------|
G|----------------------66666666------------|
D|--77--99-9--77--99-9--66666666--22222222--|
A|--77--77-7--77--77-7--44444444--22222222--|
E|--55--55-5--55--55-5------------00000000--|

Chorus:

(Just a lot of...)
E|-----------------------------------------------------------------------|
B|-----------------------------------------------------------------------|
G|--777777-------------------6-66--------------44444444------------------|
D|--777777-7-22222222--7-77--6-66--4-44--3-33--44444444--2-0-------------|
A|--555555-7-22222222--7-77--4-44--4-44--3-33--22222222-------4-2-0------|
E|---------5-00000000--5-55--------2-22--1-11-----------------------4-0--|

(At the...)
E|--------------------------|
B|--------------------------|
G|--------7-77--------------|
D|--3-33--7-77--3-33--2-22--|
A|--3-33--5-55--3-33--2-22--|
E|--1-11--------1-11--0-00--|

(They don't wanna know...) - Play 3x
E|---------------------------------|
B|---------------------------------|
G|---------1111--11-----------777--|
D|--77--11-1111--11-1111--11--777--|
A|--77--11--9-9---9--8-8---8--555--|
E|--55---9-------------------------|

Verse:

(Ugly lust...)
E|-------------------------------------------|
B|-------------------------------------------|
G|-------------------------------------------|
D|--77--99-9--77--99-9--77--99--------4-3----|
A|--77--77-7--77--77-7--77--77------4-----4--|
E|--55--55-5--55--55-5--55--55--1/2----------|

(But no one cares...)
E|------------------------------------------|
B|------------------------------------------|
G|----------------------66666666------------|
D|--77--99-9--77--99-9--66666666--22222222--|
A|--77--77-7--77--77-7--44444444--22222222--|
E|--55--55-5--55--55-5------------00000000--|

Chorus:

(Just a lot of...)
E|-----------------------------------------------------------------------|
B|-----------------------------------------------------------------------|
G|--777777-------------------6-66--------------44444444------------------|
D|--777777-7-22222222--7-77--6-66--4-44--3-33--44444444--2-0-------------|
A|--555555-7-22222222--7-77--4-44--4-44--3-33--22222222-------4-2-0------|
E|---------5-00000000--5-55--------2-22--1-11-----------------------4-0--|

(At the...)
E|--------------------------|
B|--------------------------|
G|--------7-77--------------|
D|--3-33--7-77--3-33--2-22--|
A|--3-33--5-55--3-33--2-22--|
E|--1-11--------1-11--0-00--|
[ Tab from: http://www.guitartabs.cc/tabs/d/descendents/dog_and_pony_show_tab.html ]
(They don't wanna know...) - Play 3x
E|---------------------------------|
B|---------------------------------|
G|---------1111--11-----------777--|
D|--77--11-1111--11-1111--11--777--|
A|--77--11--9-9---9--8-8---8--555--|
E|--55---9-------------------------|

Bridge:

(Stand in line...) - Play 2x
E|----------------------|
B|----------------------|
G|--99999999------------|
D|--99999999--44444444--|
A|--77777777--44444444--|
E|------------22222222--|

(Dying to get off...)
E|----------------------|
B|----------------------|
G|--77777777--99999999--|
D|--77777777--99999999--|
A|--55555555--77777777--|
E|----------------------|

!!Pause!!

(They're telling me...)
E|----------------------------------------------------------|
B|----------------------------------------------------------|
G|--77777777--99999999--1010101010101010--1212121212121212--|
D|--77777777--99999999--1010101010101010--1212121212121212--|
A|--55555555--77777777---8-8-8-8-8-8-8-8--1010101010101010--|
E|----------------------------------------------------------|

Solo:

E|-------------------------------------------------------------------------|
B|-------------------------------------------5------5-7-7b-7-5-5/4-4/3-3/2-|
G|-7b-7-6-4---4-----------------------4-6--6---6--6------------------------|
D|----------7---7-4-7-4--------4-7--7--------------------------------------|
A|----------------------77---7---------------------------------------------|
E|-------------------------------------------------------------------------|

Verse:

(It's no place...)
E|-------------------------------------------|
B|-------------------------------------------|
G|-------------------------------------------|
D|--77--99-9--77--99-9--77--99--------4-3----|
A|--77--77-7--77--77-7--77--77------4-----4--|
E|--55--55-5--55--55-5--55--55--1/2----------|

(Mating rights...)
E|------------------------------------------|
B|------------------------------------------|
G|----------------------66666666------------|
D|--77--99-9--77--99-9--66666666--22222222--|
A|--77--77-7--77--77-7--44444444--22222222--|
E|--55--55-5--55--55-5------------00000000--|

Chorus:

(Just a lot of...)
E|-----------------------------------------------------------------------|
B|-----------------------------------------------------------------------|
G|--777777-------------------6-66--------------44444444------------------|
D|--777777-7-22222222--7-77--6-66--4-44--3-33--44444444--2-0-------------|
A|--555555-7-22222222--7-77--4-44--4-44--3-33--22222222-------4-2-0------|
E|---------5-00000000--5-55--------2-22--1-11-----------------------4-0--|

(At the...) - Play 2x
E|--------------------------|
B|--------------------------|
G|--------7-77--------------|
D|--3-33--7-77--3-33--2-22--|
A|--3-33--5-55--3-33--2-22--|
E|--1-11--------1-11--0-00--|

(They don't wanna know...) - Play 2x
E|---------------------------------|
B|---------------------------------|
G|---------1111--11-----------777--|
D|--77--11-1111--11-1111--11--777--|
A|--77--11--9-9---9--8-8---8--555--|
E|--55---9-------------------------|

E|--------------------------5--|
B|--------------------------6--|
G|---------1111--11---------7--|
D|--77--11-1111--11-111111--7--|
A|--77--11--9-9---9--8-8-8--5--|
E|--55---9---------------------|
Comments