Descendents - Clean Sheets Chords & Tabs

 

Clean Sheets Chords & Tabs

Descendents Chords & Tabs

Version: 1 Type: Bass Tab 0 ratings
1 star 2 stars 3 stars 4 stars 5 stars
comments

Clean Sheets Bass Tab

artist: descendents
song: clean sheets
By: Mike T 

> MEANS STRUM
H= HAMMER ON

INTROx4 [on last time dont play the 7>9]
G]-----------7H9--]
D]----------------]
A]----------------]
E]00-0-0-0-0------]

BRIDGEx1
G]--------|--------|--------]
D]--------|--------|--------]
A]----5>--|----3>--|2>--3>--]
E]3>------|3>------|--------]

VERSEx4
G]--------------------|------------------]
D]--------------------|------------22-44-]
A]----------2222------|55-575-3333-------]
E]3333-5555------3333-|------------------]
[ Tab from: http://www.guitartabs.cc/tabs/d/descendents/clean_sheets_btab.html ]
CHORUSx1
G]-----------7H9--|---------------|--------------]
D]----------------|---------------|--------------]
A]----------------|-----2----3----|--------2-2-3-]
E]00-0-0-0-0------|3--------------|3>--2>--------]

VERSE
CHORUS

INTERLUDE
G]--------------------|-----------------------------|------]
D]--------------------|-----------------------------|------]
A]2-2-2-2-3-3-3-3-----|2-2-2-2-0-0-0-0----787----787|2>-3>-]
E]----------------3>--|----------------00-----00----|------]

INTRO
BRIDGEx2
VERSE
CHORUSx2

OUTROx3
G]--------------]
D]--------------]
A]--------2-2-3-]
E]3>--2>--------]

ENDING
G]12-11----12-11-12------]
D]-----12----------------]
A]-----------------------]
E]------------------0----]

Comments