Descendents - Cheer Chords & Tabs

 

Cheer Chords & Tabs

Descendents Chords & Tabs

Version: 2 Type: Tab 0 ratings
1 star 2 stars 3 stars 4 stars 5 stars
comments

Cheer Tab

Descendents-Cheer
Tab by Matthew Bennett

Listen to the song to get the rhythm.

Song Order:
		Chorus
		Palm Mute
		Interlude
		Verse
		Interlude
		Verse
		Interlude
		Chorus
		Palm Mute
		Fig 1
		Interlude
		Verse
		Interlude
		Verse
		Interlude
		Chorus
		Palm Mute
		Fig 2
		Interlude
		Riff 1
		Interlude
		Riff 1
		Interlude
		Chorus
		Palm Mute
		Fig 3
		Interlude

Chorus				x2   Palm Mute
e ---------------|---------------|--------------|--|
B ---------------|---------------|--------------|--|
G -11-11---------|-13-13---------|--------------|--|
D -11-11-------9-|-13-13-------9-|-4------------|--|
A -9--9--7-9-7-9-|-11-11-7-9-7-9-|-4------------|--|
E -------------7-|-------------7-|-2------------|--|

Interlude
e ------------------|--|
B ------------------|--|
G -----/9-9-9-9-----|--|
D -9-9-/9-9-9-9-9-9-|--|
A -9-9-/7-7-7-7-9-9-|--|
E -7-7-/7-7-7-7-7-7-|--|

Verse
e -(4)-4---4---4-(6)-6---6-(7)-7---7-|--|
B -(4)---4---4---(7)---7---(7)---7---|--|
G -(4)-----------(8)-------(9)-------|--|
D --6------------(8)-------(9)-------|--|
A --6------------(6)-------(7)-------|--|
E --4------------(6)-------(7)-------|--|
[ Tab from: http://www.guitartabs.cc/tabs/d/descendents/cheer_tab_ver_2.html ]
Fig 1
e -7---7---7-----7-----7-|--|
B ---9-------9-----9-----|--|
G -------8-----9-----9---|--|
D -----------------------|--|
A -----------------------|--|
E -----------------------|--|

Fig 2
e -7---7-----7-----7---7---|-7---7-9-7---7---7-|--|
B ---9-----9-----9-------9-|---9-------9---9---|--|
G -------8-----9-----9-----|-------------------|--|
D -------------------------|-------------------|--|
A -------------------------|-------------------|--|
E -------------------------|-------------------|--|

Riff 1
e -----------------------|-----------------------|--|
B -----------------------|-----------------------|--|
G -11-11-11-8--------8-8-|-11-11-11-8--------8---|--|
D ------------9-9-11-----|------------9-9-11---9-|--|
A -----------------------|-----------------------|--|
E -----------------------|-----------------------|--|

Fig 3
e-7---7---------7-----7---|---7-----7-----7-----7---|---7-----7-----7-----7---|---7-----7-----7-----7---|
B---9-----9-------9-----9-|-----9-----9-----9-----9-|-----9-----9-----9-----9-|-----9-----9-----9-----9-|
G-------8---8-9-----9-----|-8-----8-----9-----9-----|-8-----8-----9-----9-----|-8-----8-----9-----9-----|
D-------------------------|-------------------------|-------------------------|-------------------------|
A-------------------------|-------------------------|-------------------------|-------------------------|
E-------------------------|-------------------------|-------------------------|-------------------------|
Comments