Des-row - Daikenkai Chords & Tabs

 

Daikenkai Chords & Tabs

Des-row Chords & Tabs

Version: 1 Type: Tab

Daikenkai Tab

   
Intro. Play 2x
e|-----11----------11---12-----------------------9---12----------------------|
B|-----11----------09---11---11---------9---11---9---12----------------------|
G|---------------------------08---------9---11-------------------------------|
D|---------------------------------------------------------------------------|
A|---------------------------------------------------------------------------|
E|---------------------------------------------------------------------------|

Verse
e|---------------------------------------------------------------------------|
B|---------------------------------------------------------------------------|
G|-8--------6--6-----9----8----8----8---9--8--6---9--------------------------|
D|-8--------6--6-----9----8----8----8---7--8--6---9--------------------------|
A|-6--------4--4-----7----6----6----6---7--6--4---7--------------------------|
E|---------------------------------------------------------------------------|
[ Tab from: http://www.guitartabs.cc/tabs/d/des_row/daikenkai_tab.html ]
e|---------------------------------------------------------------------------|
B|---------------------------------------------------------------------------|
G|-8--------6--6-----9----8----8----8---9--8--6---9--6-----------------------|
D|-8--------6--6-----9----8----8----8---7--8--6---9--6-----------------------|
A|-6--------4--4-----7----6----6----6---7--6--4---7--4-----------------------|
E|---------------------------------------------------------------------------|

Chorus. Repeat as needed
e|---------------------------------------------------------------------------|
B|---------------------------------------------------------------------------|
G|--8--------2---------------------------------------------------------------|
D|--6--------4----6----------------------------------------------------------|
A|----------------4----------------------------------------------------------|
E|-------------------------------------------------------------------------|

Thats pretty much the whole song, just listen to it it get the beat.


| /  slide up
| \  slide down
| h  hammer-on
| p  pull-off
| ~  vibrato
| +  harmonic
| x  Mute note
===============================================================================