Derozer - Branca Day Chords & Tabs

 

Branca Day Chords & Tabs

Derozer Chords & Tabs

Version: 1 Type: Tab 0 ratings
1 star 2 stars 3 stars 4 stars 5 stars
comments

Branca Day Tab

   
Artist - Derozer 
Song - Branca Day 
Album - Alla nostra età

Ciao stronzetti, questa è branca day dei derozer, ci sono 2 chitarre e il basso segue tutti gli accordi, dico questo per evitare di fare una tab per il basso, che sarebbe veramente inutile.

Introduzione

Chit.1 - G5 C5 D5 C5 D5

Chit.2
  
1|----7-5-7-3-7-5-7-8-5---------5--------|
2|----------------------8-5---7---8-7-8--|
3|--------------------------7------------|
4|---------------------------------------|
5|---------------------------------------|
6|---------------------------------------|

1|----7-5-7-3-7-5-7-8-10-12-10-8-7h8p7---|
2|---------------------------------------|
3|---------------------------------------|
4|---------------------------------------|
5|---------------------------------------|
6|---------------------------------------|
[ Tab from: http://www.guitartabs.cc/tabs/d/derozer/branca_day_tab.html ]
Strofa 1
G5                      C5             D5   C5   D5
Di giorno io non so chi sei
G5                            C5            D5   C5   D5
Non mi ricordo nemmeno il tuo nome wo-ho
G5                          C5          D5   C5   D5
Non so se sei vera o sei fantasia
G5                           C5            D5   C5   D5
E non mi dispiace che tu non sia con me

Strofa 2
G5                        B5                     E5-Em
Ma quando il giorno se ne va mi ritrovo dentro un bar
                   C5
con una bottiglia vuota in mano

G5                    B5                   E5-Em
All'improvviso arrivi tu, brancamenta butto giù,
                 C5     D5
io ti amo sempre più      

Ritornello
G5                                     C5
Ti amo quando sono sbronzo - ti amo di più
                 E5                  A5
Quando io sono ubriaco - mi piaci di più.

Intermezzo
    G5            C5        D5   C5    D5   
1|-------------------------------------------|
2|-------------------------------------------|
3|-------------------------------------------|
4|--9-7-9-5-9-7-9-10-7-----------7-----------|
5|---------------------10-7----9---10-9-10---|
6|--------------------------10---------------|

e' tutto, commenti,suggerimenti,imprecazioni a klakurt@hotmail.com
pace, amore, anarchia
Klaudio

Comments