Derogatory Remarks - Need A Drink Chords & Tabs

 

Need A Drink Chords & Tabs

Derogatory Remarks Chords & Tabs

Version: 1 Type: Tab 0 ratings
1 star 2 stars 3 stars 4 stars 5 stars
comments

Need A Drink Tab

   
http://www.DerogatoryRemarks.com
Band: Derogatory Remarks
Song: Need a Drink   2003
Album: Songs About Marcie

Chords Used  (not actual chord names, but this is what Corey uses, trust me.)

    F      Am      G       

e   -0-   -0-   -0-
b   -1-   -1-   -1-
g   -2-   -2-   -0-
d   -3-   -2-   -0-
a   -0-   -0-   -2-
E   -0-   -0-   -3-

Intro
e|---------------------------------------------------------|
B|---------------------------------------------------------|
G|---------------------------------------------------------|
D|--------2--2--2--2--2--2--2--2--0--0--0--0--0--0--0------|
A|-------0--0--0--0--0--0--0--0--0--0--0--0----------------|
E|--------------------------------------------2--2--2--2---|

e|---------------------------------------------------------|
B|---------------------------------------------------------|
G|---------------------------------------------------------|
D|--------2--2--2--2--2--2--2--2--0--0--0--0--0--0--0------|
A|-------0--0--0--0--0--0--0--0--0--0--0--0----------------|
E|--------------------------------------------2--2--2--2---|

Intro 2
e|--x-x-0-0-x-x-0-0--x-x-0-0-x-x-0-0--x-x-0-0-x-x-0-0--x-x-0-0-x-x-0-0--|
B|--x-x-1-1-x-x-1-1--x-x-1-1-x-x-1-1--x-x-1-1-x-x-1-1--x-x-1-1-x-x-1-1--|
G|--x-x-0-0-x-x-0-0--x-x-0-0-x-x-0-0--x-x-0-0-x-x-0-0--x-x-0-0-x-x-0-0--|
D|--x-x-2-2-x-x-2-2--x-x-2-2-x-x-2-2--x-x-0-0-x-x-0-0--x-x-0-0-x-x-0-0--|
A|--0-0-x-x-0-0-x-x--0-0-x-x-0-0-x-x--0-0-x-x-0-0-x-x--0-0-x-x-0-0-x-x--|
E|--0-0-x-x-0-0-x-x--0-0-x-x-0-0-x-x--0-0-x-x-0-0-x-x--2-2-x-x-2-2-x-x--|
[ Tab from: http://www.guitartabs.cc/tabs/d/derogatory_remarks/need_a_drink_tab.html ]
e|--x-x-0-0-x-x-0-0--x-x-0-0-x-x-0-0--x-x-0-0-x-x-0-0--x-x-0-0-x-x-0-0--|
B|--x-x-1-1-x-x-1-1--x-x-1-1-x-x-1-1--x-x-1-1-x-x-1-1--x-x-1-1-x-x-1-1--|
G|--x-x-0-0-x-x-0-0--x-x-0-0-x-x-0-0--x-x-0-0-x-x-0-0--x-x-0-0-x-x-0-0--|
D|--x-x-2-2-x-x-2-2--x-x-2-2-x-x-2-2--x-x-0-0-x-x-0-0--x-x-0-0-x-x-0-0--|
A|--0-0-x-x-0-0-x-x--0-0-x-x-0-0-x-x--0-0-x-x-0-0-x-x--0-0-x-x-0-0-x-x--|
E|--0-0-x-x-0-0-x-x--0-0-x-x-0-0-x-x--0-0-x-x-0-0-x-x--2-2-x-x-2-2-x-x--|

Verse    play through 4x (lyrics at bottom of page)
e|--x-x-0-0-x-x-0-0--x-x-0-0-x-x-0-0--x-x-0-0-x-x-0-0--x-x-0-0-x-x-0-0--|
B|--x-x-1-1-x-x-1-1--x-x-1-1-x-x-1-1--x-x-1-1-x-x-1-1--x-x-1-1-x-x-1-1--|
G|--x-x-0-0-x-x-0-0--x-x-0-0-x-x-0-0--x-x-0-0-x-x-0-0--x-x-0-0-x-x-0-0--|
D|--x-x-2-2-x-x-2-2--x-x-2-2-x-x-2-2--x-x-0-0-x-x-0-0--x-x-0-0-x-x-0-0--|
A|--0-0-x-x-0-0-x-x--0-0-x-x-0-0-x-x--0-0-x-x-0-0-x-x--0-0-x-x-0-0-x-x--|
E|--0-0-x-x-0-0-x-x--0-0-x-x-0-0-x-x--0-0-x-x-0-0-x-x--2-2-x-x-2-2-x-x--|


Chorus
  F            Am                 G                  G
and I'd like to stop and talk about it with you
F              Am                 G                  G
but I'd rather go buy a drink
'cause I know how attractive you are and
it's half as much as you think
ya it's half as much as you think
and thats why I need a drink


Verse 1
yes I know your name we met last week
that doesn't mean I want to kiss you on the cheek
and I'm not being rude or even impolite
I just don't kiss every girl I meet each night

Verse 2
I'm not trying to act like I'm better than you
I'm just stating my point of view
If you were beautiful you probably wouldn't be here
 to see I'm being honest just go find a mirror

Verse 3
call me a jerk I don't really care
I hear you talking but its like your not there
don't raise your voice your act is nothing new
go find your friends I think they're calling you  

Intro
Intro 2
Verse 1
Chorus 
Intro 2
verse 2 ect.


the pricks never play this live anymore, they should.
Comments