Derkholm - Dreemkast Chords & Tabs

 

Dreemkast Chords & Tabs

Derkholm Chords & Tabs

Version: 1 Type: Tab 0 ratings
1 star 2 stars 3 stars 4 stars 5 stars
comments

Dreemkast Tab

          band:Derkholm
          song:Dreemkast
          album:In the Hall of the Mountain Kings
          performed by Ben Koehler
          tabed by Eric Montminy:AMKII@worldnet.att.net
          
            Intro
              using wah wah pedal     Repeat 3x
          e|--------------------------------------------------------------------------------
          B|--------------0-----------------0-----------------------------------------------
          G|------------0---0-----------------0---------------------------------------------
          D|-----4---4--------4-----4---4-------4-----4---4----4-----4-----4---4-----4---0--
          A|--2----2-------------2----2------------2----0----2----------0---------2----2----
          E|------------------------------------------------------3----------0--------------
            
           Riff 1       Distorsion (heavy)
          e|-------
          B|-------
          G|-------      Repeat 10x
          D|--4-4-0
          A|--2-2-2
          E|--0-3-3
          
            Riff 2    (slow)
          e|---------------
          B|---------------        Repeat 6x
          G|---------------
          D|--1-1-3-3-2-3-1
          A|--1-1-3-3-2-3-1
          E|--1-1-3-3-2-3-1
          
            outro (fast, heavy)
          e|----------------
          B|----------------
          G|----------------
          D|----------------
          A|--4-4-7-7-3-3---
          E|--2-2-5-5-5-5---
[ Tab from: http://www.guitartabs.cc/tabs/d/derkholm/dreemkast_tab.html ]
Comments