Derkholm - Dreemkast Chords & Tabs

 

Dreemkast Chords & Tabs

Derkholm Chords & Tabs

Version: 1 Type: Bass Tab 0 ratings
1 star 2 stars 3 stars 4 stars 5 stars
comments

Dreemkast Bass Tab

          band:Derkholm
          song:Dreemkast
          performed by Eric Montminy
          tabed by Ben Koehler:LiLmN8742@aol.com
          
          
            Intro
               using bass wah wah pedal
          G|--14h15-14h15--14h15-14h15--14h15-14h15-14h15   
          D|-------------00-----------00----------00-----00
          A|-----------------------------------------------   
          E|----------------------------------------------- repeat 5x
          
            Riff 1
            use the distorsion pedal!
          G|--------------------------------------------------------------------------------------------
          D|---0-4-0-0-4-------0-4-0-0-4------------4-0-0-4-----------4-0-0-4----------4-0-0-4----------
          A|--5---------------5--------------------5-----------------5----------------5-----------------
          E|-0---------------0--------------------0-----------------0----------------0-----------------0
           repeat 3x
            
             Riff 2
            keep using your pedal! (slow)
          G|--0------0------0-----0------0----0----0-----0------0----00-----0------0----0----0---0---0-
          D|0---0------0------0-----0-----0-----0---0------0-----0-----00----0------0----0----0---0---0
          A|------3-6---4-4----5-7----2-----2-----2----2-----2-3---4-----4----4-6----1-5---5----5---5-0
          E|-------------------------------------------------------------------------------------------
          
           solo!
          G|-2-3--------2-3--------2-3------2-3-------2-3--------2-3----------2-3--------2-3-------2-3-
          D|1---3------1---4------------------------0-----0-----0-----0----------0-----------0------0--
          A|--------0-----------0--------0----------------------------------0---------0-----------0----
          E|----------------------------0---------0-----------------------0-------------0-------0------
          
           outro (slow)
          G|0---------0--------------------------------------------------------------------------------
          D|-----0----------------0---------------0--------------0--------------0---------------0------
          A|-----------------------------0---------------0------------------------------------------0--
          E|----------------1----------------1-------------------------3----------------5-------------0
          
              its hard and will take time to get it to sound good but just try it out!
[ Tab from: http://www.guitartabs.cc/tabs/d/derkholm/dreemkast_btab.html ]
Comments