Derek Trucks Band - Crow Jane Chords & Tabs

 

Crow Jane Chords & Tabs

Derek Trucks Band Chords & Tabs

Version: 2 Type: Tab 0 ratings
1 star 2 stars 3 stars 4 stars 5 stars
comments

Crow Jane Tab

   
THE DEREK TRUCKS BAND

Crow Jane (Intro, live)

Transcribed by Danleary

Key

 b : Bend
 r : Release
 / : Slide into
 \ : Slide out of
 h : Hammer on
 p : Pull off
(-): Ghost note
 ~ : Vibrato
 x : Mute
 U : Up stroke
 D : Down stroke
 T : Fret with thumb
 . : Staccato 

___________________________________________________________

Open E Tuning
___________________________________________________________


A detailed look at the intro and main section. Based on the live video
found here: http://www.youtube.com/watch?v=fukDidyz4y4

Tuned to open E and played fingerstyle. You need tons of finger strength 
for this one, man! He's often full on barring, and sliding with his pinky 
to create embellishments. 

_____________________________________________________________________________

Intro

 e|-------------------11--------------------9------------------------------9|
 B|----------------14----14---------9-11/12------11/12-11--9h11-11-9h11p9---|
G#|-------------11----------------9---9----------9-----9---9----9--9--------|
 E|----------11-------------------------------------------------------------|
 B|-------------------------------------------------------------------------|
 E|1/11---11------------------3/9----(9)------9--9-----9---9----9--9--------|
[ Tab from: http://www.guitartabs.cc/tabs/d/derek_trucks_band/crow_jane_tab_ver_2.html ]
 e|--4-4-4------------------11-11-------4-4-4--|
 B|--4-7-4-------------14---11-14-----7---4-4--|
G#|--4-4-4----------11------11-11-----4--------|
 E|--4-4-4-----4/11---------11-11-----4--------|
 B|------------4/11---------11-----------------|
 E|4-------4---4/11---------11----x-x-4--------|

_____________________________________________________________________________


 e|--7-----7---4-4--------------11-11-----9-----9-----------9--9------9----9|
 B|--4-----4---4-7---------14---11-14-----12-9--9-----12-12-12-12-----9-12-9|
G#|--4-----4---4-4------11------11-11-----9--9--9-----9--9--9--9------9-9--9|
 E|--4-4---4---4-4-4/11---------11-11-----9--9--9-----------9--9------9-9--9|
 B|----------------4/11---------11--------9---------------------------------|
 E|x---------------4/11-------x-------x-x-9---x---x-x-9--9--9--9--x-x-9-9--9|

0:21


 e|--------4----------------------11-11--------------------------------11-11|
 B|--7-4---4---7-------------14---11-14-----7-4---4---7-----------14---11-14|
G#|--4-4---4---4----------11------11-11-----4-4---4---4--------11------11-11|
 E|--4-4---4---4-----4/11---------11-11-----4-4---4---4---4/11---------11-11|
 B|------------------4/11---------11----------------------4/11---------11-11|
 E|4-------------x---4/11-------x-------x-x-4---x-------x-4/11-------11-----|

0:24

 e|--------4----------------------11-11-------------------------------------|
 B|--7-4---4---7-------------14---11-11-------------------------------------|
G#|--4-4---4---4----------11------11-11-------------------------------------|
 E|--4-4---4---4-----4/11---------11-11-------------------------------------|
 B|------------------4/11---------11----------------------------------------|
 E|x-4---x-------x---4/11-------x-------x-x---------------------------------|
Comments