Derek And The Dominos - Layla Chords & Tabs

 

Layla Chords & Tabs

Derek And The Dominos Chords & Tabs

Version: 2 Type: Bass Tab 0 ratings
1 star 2 stars 3 stars 4 stars 5 stars
comments

Layla Bass Tab

Song:    Layla
Band:    Derek & The Dominos
Bassist: Carl Radle
Album:   Layla & Other Assorted Love Songs

Note that this is an incomplete tab. If any one wants to add the outro,
please do.
I've tried made it as easy to follow as i can. Let me know what you
think.

Intro/Chorus/Solo
                                    x3
G| |---------------|-----------------||---------------| |--------||
D|4|---------------|-----------------||---------------|2|--------||
A|4|-5--5-5-1--1-1-|-3--3-3-5--5-0-3-||-5--5-5-1--1-1-|4|-3--3-3-||
E| |---------------|-----------------||---------------| |--------||


Verse
[ Tab from: http://www.guitartabs.cc/tabs/d/derek_and_the_dominos/layla_btab_ver_2.html ]
G| |--------------------|-------------4-6-|-----------------|----------------|
D|4|----------------2-4-|-6--6-4-6--6-----|-----------------|-2--2--2--------|
A|4|-4--4-4--4-4--4-----|-----------------|-4--4-4--4-3--5--|--------4-2-----|
E| |--------------------|-----------------|-----------------|------------0-1-|

 |----------------|-----------------9-|-11--11-9-----------|--------------||
 |----------------|--------6-7--9-11--|---------11-9--9-7--|--------------||
 |------------4-6-|-7--7-9------------|------------------9-|-7--7-5-------||
 |-2--4-5-7--7----|-------------------|--------------------|-------7-5----||

chorus then verse x3, then chorus until the extended outro.

thomaspotts801@netscapeonline.co.uk
Comments