Deprived The - Death Chords & Tabs

 

Death Chords & Tabs

Deprived The Chords & Tabs

Version: 1 Type: Tab 0 ratings
1 star 2 stars 3 stars 4 stars 5 stars
comments

Death Tab

   
Artist: The deprived
Title: Death
Posted by: j_ettinger

NOTE: tune the low E to a D


Intro: Play twice
e-------------------------------------------------
B-------------------------------------------------
G-------------------------------------------------
D-----3-----3-----3-----3-----3-----3-----3-----3-
A---3-----3-----3-----3-----3-----3-----3-----3---
D-3-----3-----3-----3-----0-----0-----0-----0-----

[ Tab from: http://www.guitartabs.cc/tabs/d/deprived_the/death_tab.html ]
Chorus: Play both lines twice
e-------------------------------------------------
B-------------------------------------------------
G-------------------------------------------------
D-0-0-0-0-0-0-0-0-2-2-2-2-2-2-2-2-0-0-0-0-0-0-0-0-
A-0-0-0-0-0-0-0-0-2-2-2-2-2-2-2-2-0-0-0-0-0-0-0-0-
D-0-0-0-0-0-0-0-0-2-2-2-2-2-2-2-2-0-0-0-0-0-0-0-0-

e-------------------------------------------------
B-------------------------------------------------
G-------------------------------------------------
D-4-4-4-4-4-4-4-4-2-2-2-2-2-2-2-2-0-0-0-0-0-0-0-0-
A-4-4-4-4-4-4-4-4-2-2-2-2-2-2-2-2-0-0-0-0-0-0-0-0-
D-4-4-4-4-4-4-4-4-2-2-2-2-2-2-2-2-0-0-0-0-0-0-0-0-


Lyrics:     *chorus

i heard the sounds
i fell 2 the ground
my heart'll stop
now my life's against the clock

*i have to stop, the tears of pain
 our memories wont go away
 i have gone, down below
 to which the heavens glow

i feel the pain
memories have been stained
i lay on my bed
to death it has been led

*i have to stop, the tears of pain
 our memories wont go away
 i have gone, down below
 to which the heavens glow
Comments