Deportivo - Clasico Share Your Love Chords & Tabs

 

Clasico Share Your Love Chords & Tabs

Deportivo Chords & Tabs

Version: 1 Type: Bass Tab

Clasico Share Your Love Bass Tab

   
-------------------------------------------------------------------------------
                     Clasico (Share Your Love) - Deportivo
-------------------------------------------------------------------------------

Tabbed By : superfranki

Tuning: Standard

Riff 1:
G |----------------------|
D |----------------------|
A |-5-5--------0-2-0-2-0-|
E |-----x5-5\2-----------|

Riff 2:
G |-7h9p7----------------11h12p11-|
D |-------7h9p7-11h12p11----------|
A |-------------------------------|
E |-------------------------------|

G |-7h9-----------11-----|
D |-----7h9-11h12----11\-|
A |----------------------|
E |----------------------|

Riff 3:
G |-----------------------------------------|
D |----12----------12-----------------------| x2
A |-10-------12-10-------12\5-5-5-5-5-5-5-5-|
E |-------10----------10--------------------|
[ Tab from: http://www.guitartabs.cc/tabs/d/deportivo/clasico_share_your_love_btab.html ]
G |-------------------------------------------------|
D |---9-------9-----777777777777999999101010101010\-|
A |-7-----9-7-----9---------------------------------|
E |-----7-------7-----------------------------------|

Riff 4:
								             --Harmoniques--
G |-7---------4--7---------4--7-7---------4--7---------4--7--7-7---7-7---7-7-|
D |----7--4-5-------7--4-5---------7--4-5-------7--4-5-----------------------|
A |--------------------------------------------------------------------------|
E |--------------------------------------------------------------------------|

Ending:
G |----------------|
D |---7------------|
A |-5-----7---4-2~-|
E |-----5---2------|

Riff 1 x6
Riff 2
Riff 1 x6
Riff 2
Riff 1 x4
Riff 3
Break
Riff 1 x4
Riff 2
Riff 1 x4
Riff 4
Riff 1 x4
Ending

| /  slide up
| \  slide down
| h  hammer-on
| p  pull-off
| ~  vibrato
| +  harmonic
| x  Mute note
===============================================================================