Depeche Mode - Waiting For The Night Chords & Tabs

 

Waiting For The Night Chords & Tabs

Depeche Mode Chords & Tabs

Version: 1 Type: Tab 0 ratings
1 star 2 stars 3 stars 4 stars 5 stars
comments

Waiting For The Night Tab

Depeche Mode:  Waiting For The Night
Standard tuning.
Not too hard.

Intro:
e|----------------------------------
B|-------------------------------11-
G|-12------12------12------12-------
D|------10----10--------10----10----
A|----------------------------------
E|----------------------------------

Chorus:
e|---------------------------------------------------------------------
B|-------------------------------11---------------------------------11-
G|-12------12------12------12---------12------12------12------12-------
D|------10----10--------10----10-----------10----10--------10----10----
A|---------------------------------------------------------------------
E|---------------------------------------------------------------------
I'm waiting for the night to fall                      I know that it will

e|---------------------------------------------------------------------
B|-------------------------------14---------------------------------14-
G|-15------15------15------15---------15------15------15------15-------
D|------13----13--------13----13-----------13----13--------13----13----
A|---------------------------------------------------------------------
E|---------------------------------------------------------------------
   save us all                                         When everything's 

e|-----------------------------------------------------------------
B|---------------------------10---------------------------------14-
G|-11-----11-----11-----11--------15------15------15------15-------
D|------9----9--------9----9-----------13----13--------13----13----
A|-----------------------------------------------------------------
E|-----------------------------------------------------------------
   dark, keeps us from the stark

e|-------------------------------------------------------
B|-----------------------7-----------------------------9-
G|-8-----8-----8-----8-------10-----10-----10-----10-----
D|-----6---6-------6---6----------8----8--------8----8---
A|-------------------------------------------------------
E|-------------------------------------------------------
   reality.

   I'm waiting for the night to fall
   When everything is bearable
   And there in the still
   All that you feel
   Is tranquility

Verse:
e|---------------------------------------------------
B|-----------------------7-------------------------7-
G|-6-----6-----6-----6-------6-----6-----6-----6-----
D|-----4---4-------4---4---------4---4-------4---4---
A|---------------------------------------------------
E|---------------------------------------------------
                              There is a star in the sky
[ Tab from: http://www.guitartabs.cc/tabs/d/depeche_mode/waiting_for_the_night_tab.html ]
e|-------------------------------------------------------------
B|---------------------------10-----------------------------10-
G|-11-----11-----11-----11--------11-----11-----11-----11------
D|------9----9--------9----9-----------9----9--------9----9----
A|-------------------------------------------------------------
E|-------------------------------------------------------------

e|-----------------------------------------------------
B|-----------------------7---------------------------7-
G|-8-----8-----8-----8-------8-----8-----6-----6-------
D|-----6---6-------6---6---------6---8-------8---8-----
A|-----------------------------------------------------
E|-----------------------------------------------------
                              Guiding my way with its light

e|-----------------------------------------------------------
B|---------------------------9-----------------------------9-
G|-10-----10-----10-----10-------10-----10-----10-----10-----
D|------8----8--------8----8----------8----8--------8----8---
A|-----------------------------------------------------------
E|-----------------------------------------------------------

   And in the glow of the moon
   Know my deliverance will come soon

   (Chorus)

   There is a sound in the calm
   Someone is coming to harm
   I press my hands to my ears
   It's easier here just to forget fear

Bridge:
e|---------------------------------------------------
B|-----------------------9-------------------------9-
G|-8-----8-----8-----8-------8-----8-----8-----8-----
D|-----6---6-------6---6---------6---6-------6---6---
A|---------------------------------------------------
E|---------------------------------------------------
   And when I sqinted the world seemed rose-tinted

e|-----------------------------------------------------------------
B|---------------------------11---------------------------------14-
G|-10-----10-----10-----10--------15------15------15------15-------
D|------8----8--------8----8-----------13----13--------13----13----
A|-----------------------------------------------------------------
E|-----------------------------------------------------------------
   Angels appeared to decend

e|---------------------------------------------------
B|-----------------------9-------------------------9-
G|-8-----8-----8-----8-------8-----8-----8-----8-----
D|-----6---6-------6---6---------6---6-------6---6---
A|---------------------------------------------------
E|---------------------------------------------------
   To my surprise, with half-closed eyes

e|-----------------------------------------------------------
B|---------------------------9-----------------------------9-
G|-10-----10-----10-----10-------10-----10-----10-----10-----
D|------8----8--------8----8----------8----8--------8----8---
A|-----------------------------------------------------------
E|-----------------------------------------------------------
   Things looked even better than when they were open

   Final Chorus:
   Been waiting for the night to fall
   I knew that it would save us all
   Now everything's dark
   Keeps us from the stark reality
   Been waiting for the night to fall
   Now everything is bearable
   And there in the still
   All that you feel is tranquility

   Outro:  Same as intro.

Well, that's it.  If this tab sucks, tell me so at iamjosh@vt.edu
If you don't listen to Depeche Mode, you should.
Comments