Depeche Mode - St Jarna Chords & Tabs

 

St Jarna Chords & Tabs

Depeche Mode Chords & Tabs

Version: 1 Type: Tab 0 ratings
1 star 2 stars 3 stars 4 stars 5 stars
comments

St Jarna Tab

Depeche Mode - St. Jarna (B-Side to 'Little 15')
Piano part arranged for guitar

Part One:  Play twice, skipping first note 2nd time
e|-2-3---3---3---5-6-5---5---5---5---5---5---5---3-5-6---6---3---3----------
B|-----4---4---4-------4---4---4---4---3---3---3-------3---3---3---3--------
G|--------------------------------------------------------------------------
D|--------------------------------------------------------------------------
A|--------------------------------------------------------------------------
E|--------------------------------------------------------------------------

Part Two:  Play twice, repeat last two notes a litte more second time (listen to
it for exact amount)
e|-3---3---3-------0---0---0---0--------------------------------------------
B|---0---0---0-1-3----------------------------------------------------------
G|-------------------2---2---2---2------------------------------------------
D|--------------------------------------------------------------------------
A|--------------------------------------------------------------------------
E|--------------------------------------------------------------------------
[ Tab from: http://www.guitartabs.cc/tabs/d/depeche_mode/st_jarna_tab.html ]
Part 3
e|-5-5-5-----8-5-5-6-----5-5-5-----8-5-5-6----------------------------------
B|-------3-6---------7-7-------3-6---------7-7-6-6-6-3-5-6-6-3-3-7-7-6-3-1--
G|-------------------------------------------------------------------------2
D|--------------------------------------------------------------------------
A|--------------------------------------------------------------------------
E|--------------------------------------------------------------------------

e|--------------------------------------------------------------------------
B|1---1---2-2-1---1---1---2-2-1---1---1---2-2-1---1---1---------------------
G|--2---2-------2---2---2-------2---2---2-------2---2---2-------------------
D|--------------------------------------------------------------------------
A|--------------------------------------------------------------------------
E|--------------------------------------------------------------------------

Outro:
e|-------------1-1----------------------------------------------------------
B|-1---1---1----------------------------------------------------------------
G|---2---2---2--------------------------------------------------------------
D|--------------------------------------------------------------------------
A|--------------------------------------------------------------------------
E|--------------------------------------------------------------------------

Song is:
Part 1
Part 2
Part 1
Part 2
Part 3
Part 1
Part 2
Part 3
Outro (repeat fade)

Easy, beautiful song, isn't it?
If this sucks, email me iamjosh@vt.edu
Comments