Depeche Mode - Enjoy The Silence Chords & Tabs

 

Enjoy The Silence Chords & Tabs

Depeche Mode Chords & Tabs

Version: 4 Type: Tab 0 ratings
1 star 2 stars 3 stars 4 stars 5 stars
comments

Enjoy The Silence Tab

 intro          
|-------------|
|-------------|
|--------8----|
|--5--8--8----|
|--5--8--6----| 
|--3--6--6----|

|-------------------|
|-------------------|
|------------8---8--|
|--5----8----8---8--|
|--5----8----6---6--|
|--3----6----6---6--|


|-----------------------|-------------------------|
|-----------------------|-------------------------|
|--------8--------------|--------8----------------|
|--10----8----5----8----|--10----8----5----4------|
|--10----6----5----8----|--10----6----5----4------|
|--8-----6----3----6----|--8-----6----3----2------|  

Gtr. 1
|-------------------------------|
|-------------------------------|
|-------------------------------|
|-5-5-5-5-5-5-5-5-8-8-8-8-8-8-8-|
|-5-5-5-5-5-5-5-5-8-8-8-8-8-8-8-| x4
|-3-3-3-3-3-3-3-3-6-6-6-6-6-6-6-|

Gtr. 2
|-----------------------------------|--------------------------------|
|-----------------------------------|--------------------------------|
|---5---7---5--------5---7---5------|----------5---------------5---8-|
|---------------8----------------8--|--6---5-------8---6---5---------|
|-6---6---6---6----6---6---6---6----|--------6---6-----------6---6---|
|-----------------------------------|-8--8-----------8---8-----------|

|-------------------|
|-------------------|
|------------8---8--|
|--5----8----8---8--|
|--5----8----6---6--| x2
|--3----6----6---6--| 

Chorus:All I ever wanted.All I ever needed.Is here in my arms
|--------------------------------------------|
|--------------------------------------------|
|--------------------------------------------|
|-55555555-10-10-10-10-10-10-777777-55555555-|
|-55555555--8-8-8-8-8-8-8-8--555555-33333333-|
|-55555555--8-8-8-8-8-8-8-8------------------|

|-------------------------------------------------|
|-------------------------------------------------|
|-------------------------------------------------|
|-55555555-10-10-10-10-10-10-777777-6666666666666-|
|-55555555--8-8-8-8-8-8-8-8--555555-4444444444444-| 
|-55555555--8-8-8-8-8-8-8-8-----------------------| 

|--------------------------------------------|
|--------------------------------------------|
|--------------------------------------------|
|-55555555-10-10-10-10-10-10-777777-55555555-|
|-55555555--8-8-8-8-8-8-8-8--555555-33333333-|
|-55555555--8-8-8-8-8-8-8-8------------------|

|---------------------------------------------|
|---------------------------------------------|
|---------------------------------------------|
|-55555555-10-10-10-10-10-10-777777-666666666-|
|-55555555--8-8-8-8-8-8-8-8--555555-444444444-| 
|-55555555--8-8-8-8-8-8-8-8-------------------| 
[ Tab from: http://www.guitartabs.cc/tabs/d/depeche_mode/enjoy_the_silence_tab_ver_4.html ]
then
|-----------------------------------|--------------------------------|
|-----------------------------------|--------------------------------|
|---5---7---5--------5---7---5------|----------5---------------5---8-|
|---------------8----------------8--|--6---5-------8---6---5---------|
|-6---6---6---6----6---6---6---6----|--------6---6-----------6---6---|
|-----------------------------------|-8--8-----------8---8-----------|


Chorus:All I ever wanted.All I ever needed.Is here in my arms
|--------------------------------------------|
|--------------------------------------------|
|--------------------------------------------|
|-55555555-10-10-10-10-10-10-777777-55555555-|
|-55555555--8-8-8-8-8-8-8-8--555555-33333333-|
|-55555555--8-8-8-8-8-8-8-8------------------|

|-----------------------------------------------|
|-----------------------------------------------|
|-----------------------------------------------|
|-55555555-10-10-10-10-10-10-777777-66666666666-|
|-55555555--8-8-8-8-8-8-8-8--555555-44444444444-| 
|-55555555--8-8-8-8-8-8-8-8---------------------| 

|--------------------------------------------|
|--------------------------------------------|
|--------------------------------------------|
|-55555555-10-10-10-10-10-10-777777-55555555-|
|-55555555--8-8-8-8-8-8-8-8--555555-33333333-|
|-55555555--8-8-8-8-8-8-8-8------------------|

|---------------------------------------------------|
|---------------------------------------------------|
|---------------------------------------------------|
|-55555555-10-10-10-10-10-10-777777-666666666666666-|
|-55555555--8-8-8-8-8-8-8-8--555555-444444444444444-| 
|-55555555--8-8-8-8-8-8-8-8-------------------------| 

Outro.
 Gtr. 1
|--------------------------------------------|
|--------------------------------------------|
|--------------------------------------------|
|-55555555-10-10-10-10-10-10-777777-55555555-|
|-55555555--8-8-8-8-8-8-8-8--555555-33333333-|
|-55555555--8-8-8-8-8-8-8-8------------------|

|-----------------------------------------------|
|-----------------------------------------------|
|-----------------------------------------------|
|-55555555-10-10-10-10-10-10-777777-66666666666-|
|-55555555--8-8-8-8-8-8-8-8--555555-44444444444-| 
|-55555555--8-8-8-8-8-8-8-8---------------------|

Gtr. 2
|--------------------------------|
|--------------------------------|
|---5---7---8--------------------|
|--------------8---8---5---8---5-|
|-6---6---6--6---6---6---6---6---|
|--------------------------------|           by adam burhan


not sure if the chorus is right.. mail me Black_and_white_555@hotmail.com
Comments