Depeche Mode - Enjoy The Silence Chords & Tabs

 

Enjoy The Silence Chords & Tabs

Depeche Mode Chords & Tabs

Version: 2 Type: Tab 0 ratings
1 star 2 stars 3 stars 4 stars 5 stars
comments

Enjoy The Silence Tab

   
1ª Parte da Musica
|-----------------------------------|--------------------------------|
|-----------------------------------|--------------------------------|
|---5---7---5--------5---7---5------|----------5---------------5---8-|
|---------------8----------------8--|--6---5-------8---6---5---------|
|-6---6---6---6----6---6---6---6----|--------6---6-----------6---6---|
|-----------------------------------|-8--8-----------8---8-----------|

2ª Parte da Musica
|--------------------------------|
|--------------------------------|
|---5---7---8--------------------|
|--------------8---8---5---8---5-|
|-6---6---6--6---6---6---6---6---|
|--------------------------------|

Tocado em acordes de quarta
Introdução: [ Cm D# ]
[ Tab from: http://www.guitartabs.cc/tabs/d/depeche_mode/enjoy_the_silence_tab_ver_2.html ]
Cm
Words like violence
D#m
Break the silence
G#
Come crashing in
G#
Into my little world

Cm
Painful to me
D#m
Pierce right through me
G#
Can't you understand
G#
Oh my little girl

F
All I ever wanted
G#
All I ever needed
   C         A#
Is here in my arms
F              G#
Words are very unnecessary
C             B
They can only do harm

[Cm D#]

(Repetir o esquema)
Vows are spoken
To be broken
Feelings are intense
Words are trivial
Pleasures remain
So does the pain
Words are meaningless
And forgettable

All I ever wanted
All I ever needed
Is here in my arms
Words are very unnecessary
They can only do harm

Enjoy the silence


GLORIFIED G - NUNO LEAL
nunofleal@hotmail.com
PORTUGAL
Comments