Depeche Mode - Dream On Chords & Tabs

 

Dream On Chords & Tabs

Depeche Mode Chords & Tabs

Version: 1 Type: Tab 0 ratings
1 star 2 stars 3 stars 4 stars 5 stars
comments

Dream On Tab

   
Song:  Dream On
Band:  Depeche Mode
Album:  Exciter
Transcribed by:  Chris Pailes 

Tune your guitar down a half step:
low to high: Eb Ab Db Gb Bb Eb

The main guitar part heard throughout the verses and chorus, just
repeat as needed:

                      	--------------------
			--------------------
			------0-------------
			----2---2-0-2-------
			--------------------
		 	--------------3-0---

End of verse part:
[ Tab from: http://www.guitartabs.cc/tabs/d/depeche_mode/dream_on_tab.html ]
			---------------------------------
			---------------------------------
			-----2-----2---2-----2-----2---2-
			---2-----2---------2-----2-------
			-0-----0-----0---3-----3-----3---
			---------------------------------

Bridge, once again just repeat as needed:

			---------------------
			---------------------
			---------------0-----
			---------0H2---------
			-----0H2-------------
			---------------------

That’s about it, it’s really pretty simple

questions or comments, e-mail me at cjpailes@hotmail.com
Comments