Depeche Mode - Breathe Chords & Tabs

 

Breathe Chords & Tabs

Depeche Mode Chords & Tabs

Version: 1 Type: Tab 0 ratings
1 star 2 stars 3 stars 4 stars 5 stars
comments

Breathe Tab

   
Depeche mode - Breathe (guitar)

chorus (listen to the song for order and sequence)
e |-------5--------|-----------|---------3--------|-----------
B |-----5----8--7~-|-----------|-------3----6--5~-|-----------
G |---5------------|-bassnotes-|-----3------------|-bassnotes-
D |-7--------------|-----------|---5--------------|-----------
A |----------------|---------5-|------------------|---------3-
E |----------------|--5--5-8---|------------------|--3--3-6---

verse (so i need to know...) (especially for the second and third verse)
    F    F    F    (c)  Am   Am   G    G    F    F    D    D    E    E    F    F
e |--------------------------------------------------------------------------------
B |-----------------------------------------1-3--1-3--0-1--1-3--3-5--3-5--5-6--5-6-
G |-0-2--0-2--0-2--2-4--4-5--4-5--4-5--4-5--2-2--2-2--2-2--2-2--4-4--4-4--5-5--5-5-
D |-3-3--3-3--3-3--0-0--7-7--7-7--5-5--5-5--3-3--3-3--0-0--0-0--2-2--2-2--3-3--3-3-
A |-3-3--3-3--3-3--0-0--7-7--7-7--5-5--5-5-----------------------------------------
E |--------------------------------------------------------------------------------
[ Tab from: http://www.guitartabs.cc/tabs/d/depeche_mode/breathe_tab.html ]
bass line:
G |--------------------------------------------------------------------------------
D |--------------------------------------------------------------------------------
A |-----------------3---0-----0----------------------------------------------------
D!|-3--------3--3-----------------5------5--3------3--0-0--0-0--2-2--2-2--3-3--3-3-

verse ending (say it's not so..)
e |----------------------
B |-------5-----------6-
G |-----5-----------5---
D |---7-----------6-----
A |-7-----------8-------
E |---------------------

easily-recognizable-bridge
e |-----------------------------------------------
B |--6~--5~--6~--5~--6~--6~--6~--6~----5~--6~--5~-
G |--5~--5~--5~--5~--5~--5~--5~--5~----4~--5~--4~-
D |--6~--7~--6~--7~--7~--6~--6~--6~----5~--6~--5~-
A |(-8~--7~--8~--7~--7~--8~--8~--8~-)-------------
E |-----------------------------------------------

for you say goodbye...
e |---------------
B |-5-3-----------
G |-----5-4-2-0-1-
D |---------------
A |---------------
E |---------------

outro
e |--------------------------|-------------------------|---------
B |-------5-------5----------|-------6-------6---------|-------6-
G |-----5---5---7---7-5------|-----5---5---7---7-5---4-|-----5---
D |---7-------7----------9---|---6-------6---------7---|---6-----
A |-7----------------------7-|-8-----------------------|-8-------
E |--------------------------|-------------------------|---------

tabbed by dION (kantongerecht@hotmail.com)
Comments