Denver Harbor - Xenophobia Chords & Tabs

 

Xenophobia Chords & Tabs

Denver Harbor Chords & Tabs

Version: 1 Type: Tab

Xenophobia Tab

   
This is a cool song that i always wanted to learn and couldn't find a tab for it, so i
it to my guitar teacher, but he had trouble with it too.  I worked on it for i while and
something that sounded very good, but not exact, but if you listen to the song, i 
you you could not figure it all out because its impossible to hear their lead
during the prechorus. well, enjoy.

INTRO-Guitar 1
-
E---------------------------------0-0-0000-----------------------------|
A------------------------0-0-0000-2-2-2222-----------------------------|
D-44p2h4-44-44p2h4-444---2-2-2222-2-2-2222-----------------------------|
G-------2---------2------2-2-2222--------------------------------------| x2
B----------------------------------------------------------------------|
e----------------------------------------------------------------------|

Guitar 1

E---------------------------------0-0-0000-----------------------------|
A------------------------0-0-0000-2-2-2222-----------------------------|
D-44p2h4-44-44p2h4-------2-2-2222-2-2-2222-----------------------------|
G-------2----------4b-2--2-2-2222--------------------------------------|
B----------------------------------------------------------------------|
e----------------------------------------------------------------------|

Guitar 1

E-----------------------0-0-0000---------------------------------------|
A-----------------------2-2-2222-2-2-2222------------------------------|
D-44p2h4-44-44p2h4-444--2-2-2222-4-4-4444------------------------------|
G-------2---------2--------------4-4-4444------------------------------|
B----------------------------------------------------------------------|
e----------------------------------------------------------------------|


Intro Guitar 2

E-2222222-2-222222----------0-0-0000---|
A-4444444-4-444444-0-0-0000-2-2-2222---|
D-4444444-4-444444-2-2-2222-2-2-2222---|
G------------------2-2-2222------------|  x3
B--------------------------------------|
e--------------------------------------|


Guitar 2

E-2222222-2-222222-0-0-0000----------|
A-4444444-4-444444-2-2-2222-2-2-2222-|
D-4444444-4-444444-2-2-2222-4-4-4444-|
G---------------------------4-4-4444-|
B------------------------------------|
e------------------------------------|

Verse

Both Guitars

(Try to get a harmonic on E-2, but it's not that important)

E-2-xx-2-xx-2-xx-2-xx----------------------|
A-4-xx-4-xx-4-xx-4-xx-0-0-00-2-2-2-2222----|
D-4-xx-4-xx-4-xx-4-xx-2-2-22-4-4-4-4444----|   x3
G---------------------2-2-22-4-4-4-4444----|
B------------------------------------------|
e------------------------------------------|


Both Guitars

E-2-xx-2-xx-2-xx-2-xx-0-0-00------------|
A-4-xx-4-xx-4-xx-4-xx-2-2-22-2-2-2-2222-|
D-4-xx-4-xx-4-xx-4-xx-2-2-22-4-4-4-4444-|
G----------------------------4-4-4-4444-|
B---------------------------------------|
e---------------------------------------|


Prechorus-Guitar 1

(The soloey part is muffled underneath the rythm guitar so its impossible to get it
right, like i said earlier.  So this is not perfect, but trust me, it sounds just fine , and
pretty simple.  Just listen to the song for timing on the "soloey part).

E------------------------------------|
A-0-0-0000-0-0-000-2-----------------|
D-2-2-2222-2-2-222-4---2h4-----------|
G-2-2-2222-2-2-222-4-------2h4p2-4~2-|
B------------------------------------|
e------------------------------------|

Guitar 1

E-------------------------------|
A-0-0-0000-0-0-000--2-2-0-2-333-|
D-2-2-2222-2-2-222--4-4-2-4-555-|
G-2-2-2222-2-2-222--4-4-2-4-555-|
B-------------------------------|
e-------------------------------|


Prechorus Guitar 2

E-----------------------------------|
A-0-0-0000-0-0-000-2-2-2222-2-2-222-|
D-2-2-2222-2-2-222-4-4-4444-4-4-444-|
G-2-2-2222-2-2-222-4-4-4444-4-4-444-|
B-----------------------------------|
e-----------------------------------|


E-------------------------------|
A-0-0-0000-0-0-000--2-2-0-2-333-|
D-2-2-2222-2-2-222--4-4-2-4-555-|
G-2-2-2222-2-2-222--4-4-2-4-555-|
B-------------------------------|
e-------------------------------|


Chorus 1-Both Guitars

E-2-2-2222-2-2-222------------------2--|
A-4-4-4444-4-4-444-0-0-0000-2-2-222-4--|
D-4-4-4444-4-4-444-2-2-2222-4-4-444-4--|
G------------------2-2-2222-4-4-444----| x2
B--------------------------------------|
e--------------------------------------|

Inbetween Chorus 1 & verse 2-Guitar 1

E---------------|
A---------------|
D-2h4-----------|
G-----2h4p2-4~2-|
B---------------|
e---------------|


Then do another Verse and prechorus (Same for both Guitars)


Chorus 2-Both Guitars

E-2-2-2222-2-2-222------------------2--|
A-4-4-4444-4-4-444-0-0-0000-2-2-222-4--|
D-4-4-4444-4-4-444-2-2-2222-4-4-444-4--|
G------------------2-2-2222-4-4-444----| x3
B--------------------------------------|
e--------------------------------------|

Both Guitars

E-2-2-2222-2-2-222------------|
A-4-4-4444-4-4-444-0-0-0000-2-|
D-4-4-4444-4-4-444-2-2-2222-4-|
G------------------2-2-2222-4-|
B-----------------------------|
e-----------------------------|


Bridge-Guitar 1

(I have to space it out more  because of the two digit numbers, but thats all nothing
of the ordinary)
[ Tab from: http://www.guitartabs.cc/tabs/d/denver_harbor/xenophobia_tab.html ]
E---------------------------------------------------------------|
A---------------------------------------------------------------|
D-7--7--7-7-7-7--6-6-6-6--6-6-6--9--9--9-9-9-9--7-7-7-7--7-7-7--|
G-x--x--x-x-x-x--x-x-x-x--x-x-x--x--x--x-x-x-x--x-x-x-x--x-x-x--|
B-10-10-10101010-9-9-9-9--9-9-9--12-12-12121212-10101010-101010-|
e---------------------------------------------------------------|


Guitar 1

(Ok, another part that is impossible to make out, so play this and it still sound good,
those are elevens, not ones)

E-------------------------------------------------------------|
A-9--9--9-9-9-9--9--9--9-9-9-9--9--9--9-9-9-9--9--9--9-9-9-9--|
D-11-11-11111111-11-11-11111111-11-11-11111111-11-11-11111111-|
G-11-11-11111111-11-11-11111111-11-11-11111111-11-11-11111111-|
B-------------------------------------------------------------|
e-------------------------------------------------------------|

Guitar 1

E---------------------------------------------------------------|
A---------------------------------------------------------------|
D-7--7--7-7-7-7--6-6-6-6--6-6-6--9--9--9-9-9-9--7-7-7-7--7-7-7--|
G-x--x--x-x-x-x--x-x-x-x--x-x-x--x--x--x-x-x-x--x-x-x-x--x-x-x--|
B-10-10-10101010-9-9-9-9--9-9-9--12-12-12121212-10101010-101010-|
e---------------------------------------------------------------|

Bridge-Guitar 2

E-------------------------------------|
A-5-5-5555-5555-555-7-7-7777-7777-777-|
D-7-7-7777-7777-777-9-9-9999-9999-999-|
G-7-7-7777-7777-777-9-9-9999-9999-999-|
B-------------------------------------|
e-------------------------------------|


Guitar 2

E-------------------------------------------------------------|
A-9--9--9-9-9-9--9--9--9-9-9-9--9--9--9-9-9-9--9--9--9-9-9-9--|
D-11-11-11111111-11-11-11111111-11-11-11111111-11-11-11111111-|
G-11-11-11111111-11-11-11111111-11-11-11111111-11-11-11111111-|
B-------------------------------------------------------------|
e-------------------------------------------------------------|

Guitar 2

E-------------------------------------|
A-5-5-5555-5555-555-7-7-7777-7777-777-|
D-7-7-7777-7777-777-9-9-9999-9999-999-|
G-7-7-7777-7777-777-9-9-9999-9999-999-|
B-------------------------------------|
e-------------------------------------|


Continued Bridge-Both Guitars

(Elevens, not ones)

E------------------------------------------------|
A-9--9-9-9-9-9-9-9-9-9-9--9-9-9-7-7777777777-777-|
D-11-1111111111111111111-111111-9-9999999999-999-|
G-11-1111111111111111111-111111-9-9999999999-999-|
B------------------------------------------------|
e------------------------------------------------|

Both Guitars

(Twelves and fourteens)

E--------------------------------0-------2-|
A-12-12121212121212121212-121212-2---2---4-|
D-14-14141414141414141414-141414-2---4---4-|
G-14-14141414141414141414-141414-----4-----|
B------------------------------------------|
e------------------------------------------|


Both Guitars

E-2-xx-2-xx-2-xx-2-xx-2-xx-2-xx----------|
A-4-xx-4-xx-4-xx-4-xx-4-xx-4-xx-3333222--|
D-4-xx-4-xx-4-xx-4-xx-4-xx-4-xx-5555444--| x3
G-------------------------------5555444--|
B----------------------------------------|
e- --------------------------------------|


Both Guitars


E-2-xx-2-xx-2-xx-2-xx-------------|
A-4-xx-4-xx-4-xx-4-xx--33332222-0-|
D-4-xx-4-xx-4-xx-4-xx--55554444-2-|
G----------------------55554444-2-|
B---------------------------------|
e- -------------------------------|


Finally the bridge if over

Prechorus Guitar 1

(Now this time the soloey thing is really REALLY hard to make out but i just plays this
it sound pretty cool).

E---------------------------------------------|
A-2-------------------------------------------|
D-4-------------------------------------------|
G-4-------------------------------------------|
B---------------------------------------------|
e---5h7p5-5h7p5-5h7p5-5h7p5-5h7p5-5h7p5-5h7p5-|


(do this ^ really fast)

Guitar 1

E-------------------------------|
A-0-0-0000-0-0-000--2-2-0-2-333-|
D-2-2-2222-2-2-222--4-4-2-4-555-|
G-2-2-2222-2-2-222--4-4-2-4-555-|
B-------------------------------|
e-------------------------------|


Prechorus-Guitar

E------------------|
A-2-2-2222-2-2-222-|
D-4-4-4444-4-4-444-|
G-4-4-4444-4-4-444-|
B------------------|
e------------------|


E-------------------------------|
A-0-0-0000-0-0-000--2-2-0-2-333-|
D-2-2-2222-2-2-222--4-4-2-4-555-|
G-2-2-2222-2-2-222--4-4-2-4-555-|
B-------------------------------|
e-------------------------------|


Chorus 3-both guitars

E-2-2-2222-2-2-222------------------2--|
A-4-4-4444-4-4-444-0-0-0000-2-2-222-4--|
D-4-4-4444-4-4-444-2-2-2222-4-4-444-4--|
G------------------2-2-2222-4-4-444----| x3
B--------------------------------------|
e--------------------------------------|

Both Guitars

E-2-2-2222-2-2-222-------------------------------------------------------|
A-4-4-4444-4-4-444-0-0-0000-2-2-2222-0-0-0000-2-2-2222-0-0-0000-0-0-0000-|
D-4-4-4444-4-4-444-2-2-2222-4-4-4444-2-2-2222-4-4-4444-2-2-2222-2-2-2222-|
G------------------2-2-2222-4-4-4444-2-2-2222-4-4-4444-2-2-2222-2-2-2222-|
B------------------------------------------------------------------------|
e------------------------------------------------------------------------|

Outro-Both Guitars


E-0-2-0-2-0-2-0-2-0-2-0-2-0-2-0-2-0-|
A-2-4-2-4-2-4-2-4-2-4-2-4-2-4-2-4-2-|
D-2-4-2-4-2-4-2-4-2-4-2-4-2-4-2-4-2-|
G-----------------------------------|
B-----------------------------------|
e-----------------------------------|

Thats it pretty much. E-mail me at Infectedmonkey96@aol.com if you have any comments.