Demons And Wizards - Dorian Chords & Tabs

 

Dorian Chords & Tabs

Demons And Wizards Chords & Tabs

Version: 2 Type: Tab 0 ratings
1 star 2 stars 3 stars 4 stars 5 stars
comments

Dorian Tab

   
Okay, first of all I dont take any credit for this tab at all. I just saw the other
guys tab and thought I might submit a decent version. It's from the Iced-Earth Website,
if you want the PROPER tabs for the other 9 Albums they have released heres the link
http://www.abysslord.com/icedearth/Tabs/tabs.html

Second of all, this new album is fkn awesome! No two ways about it, easily better then
the first Demons And Wizards album they released in 1999. 3 Times as in depth as well 

Well, Here it is:
Notation:

10^        = bend a quarter step.
10b11      = bend a half step.
10b12      = bend a full step.
10b12r10   = bend and release.
[10]12     = pre-bend.
[10]12r10  = pre-bend and release.
{14}       = pick the 14th fret while holding the most 
             previous bend.
<17>       = touch the string above the 17th fret while 
             previous note(s) is(are) still ringing.

10b13*     = tremolo bar bend, from the 10th fret to the 13th fret.
7d4*       = tremolo bar dive, from the 7th fret to the 4th fret. 
12~*       = tremolo bar vibrato.

x   =  mute with fret-hand
*   =  palm mute
X\\ =  pick slide
h   =  hammer-on
p   =  pull-off
~   =  vibrato
t   =  finger tap
/   =  slide up
\   =  slide down
h.  =  natural harmonics
a   =  artificial harmonics
(9) =  ghost note
tm  =  trem picking
tr  =  trill

Tuning: Eb

Intro
Guitar 1
eb|------------------------------------|
Bb|------------------------------------|
Gb|------------------------------------|
Db|------------------------------------|
Ab|-7-----7-----7---10-----10-----10---|
Eb|---0-0---0-0---0----0-0----0-0----0-|
      * *   * *   *    * *    * *    *
eb|----------------------------------|
Bb|----------------------------------|
Gb|----------------------------------|
Db|----------------------------------|
Ab|-10-9---9-----9---9-8---8-----8---|
Eb|------0---0-0---0-----0---0-0---0-|
         *   * *   *     *   * *   *

Guitar 2                           x2
eb|---------------------------------|
Bb|---------------------------------|
Gb|---------------------------------|
Db|---------------------------------|
Ab|----------[silent]---------------|
Eb|---------------------------------|

eb|-0-------------------------------|
Bb|-0-------------------------------|
Gb|-x-------------------------------|
Db|-2-------------------------------|
Ab|-2-------------------------------|
Eb|-0-------------------------------|

eb|---------------------------------|
Bb|---------------------------------|
Gb|---------------------------------|
Db|-5-4---4-----4---4-3---3-----3---|
Ab|-5-4---4-----4---4-3---3-----3---|
Eb|-----0---0-0---0-----0---0-0---0-|
    * * * * * * * * * * * * * * * *
eb|---------------------------------|
Bb|---------------------------------|
Gb|---------------------------------|
Db|---------------------------------|
Ab|-2-------------------------------|
Eb|-0-------------------------------|
    *
eb|---------------------------------|
Bb|---------------------------------|
Gb|---------------------------------|
Db|-5-4---4-----4---4-3---3-----3---|
Ab|-5-4---4-----4---4-3---3-----3---|
Eb|-----0---0-0---0-----0---0-0---0-|
    * * * * * * * * * * * * * * * *
eb|-0-------------------------------|
Bb|-0-------------------------------|
Gb|-x-------------------------------|
Db|-2-------------------------------|
Ab|-2-------------------------------|
Eb|-0-------------------------------|

eb|---------------------------------|
Bb|---------------------------------|
Gb|---------------------------------|
Db|-5-4---4-----4---4-3---3-----3---|
Ab|-5-4---4-----4---4-3---3-----3---|
Eb|-----0---0-0---0-----0---0-0---0-|
    * * * * * * * * * * * * * * * *


Riff 1
eb|------------------------------------|
Bb|------------------------------------|
Gb|------------------------------------|
Db|-9-----9-----9---12-----12-----12---|
Ab|-7-----7-----7---10-----10-----10---|
Eb|---0-0---0-0---0----0-0----0-0----0-|
      * *   * *   *    * *    * *    *
eb|-----------------------------------------|
Bb|-----------------------------------------|
Gb|-----------------------------------------|
Db|-12-11---11-----11---11-10---10-----10---|
Ab|-10--9----9------9----9--8----8------8---|
Eb|-------0----0-0----0-------0----0-0----0-|
          *    * *    *       *    * *    *


Riff 2
Guitar 1                     x2
eb|---------------------------|
Bb|---------------------------|
Gb|---------------------------|
Db|-9---------------10/12\10--|
Ab|-7----------------8/10\-8--|
Eb|---------------------------|

eb|---------------------------|
Bb|---------------------------|
Gb|---------------------------|
Db|-7---------------10/12\10--|
Ab|-5----------------8/10\-8--|
Eb|---------------------------|

eb|---------------------------|
Bb|---------------------------|
Gb|---------------------------|
Db|-9-------------------------|
Ab|-7-------------------------|
Eb|----------------------/17\-|

Guitar 2                           x8
eb|---------------------------------|
Bb|---------------------------------|
Gb|---------------------------------|
Db|---------------------------------|
Ab|---------------------------------|
Eb|-0-0-0-0-0-0-0-0-0-0-0-0-0-0-0-0-|
    * * * * * * * * * * * * * * * *


Play Riff 1
Play Riff 2
Play Riff 1


Riff 3
eb|------------------------------------|
Bb|------------------------------------|
Gb|------------------------------------|
Db|-------9-999------------------------|  ---------|
Ab|-7-777-------12-121210-101010-9-999-|           |
Eb|------------------------------------|           |
    * *** * ***  *  * * *  * * * * ***             |
eb|--------------------------------------------|   |-> Play 2x
Bb|--------------------------------------------|   |
Gb|--------------------------------------------|   |
Db|--------------------------------------------| --|
Ab|-12-121210-101010-9-999-5-557-777-7-777-770-|
Eb|--------------------------------------------|
    *   * * *  * * * * *** * *** *** * *** ***
eb|--------------------------------|
Bb|--------------------------------|
Gb|--------------------------------|
Db|-------7-777--------------------|
Ab|-5-555-------10-10108-888-7-777-|
Eb|--------------------------------|
    * *** * ***  *  * ** *** * ***
eb|----------------------------------------|
Bb|----------------------------------------|
Gb|----------------------------------------|
Db|----------------------------------------|
Ab|-10-10108-888-7-777-3-335-555-5-555-555-|
Eb|----------------------------------------|
    *   * ** *** * *** * *** *** * *** ***
[ Tab from: http://www.guitartabs.cc/tabs/d/demons_and_wizards/dorian_tab_ver_2.html ]
Repeat above, then play:
eb|------------------------------------|
Bb|------------------------------------|
Gb|------------------------------------|
Db|-------9-999------------------------|
Ab|-7-777-------12-121210-101010-9-999-|
Eb|------------------------------------|
    * *** * ***  *  * * *  * * * * ***
eb|--------------------------------------------|
Bb|--------------------------------------------|
Gb|--------------------------------------------|
Db|--------------------------------------------|
Ab|-12-121210-101010-9-999-5-557-777-7-777-777-|
Eb|--------------------------------------------|
    *   * * *  * * * * *** * *** *** * *** ***


Riff 4
eb|-----------------------------------|
Bb|-----------------------------------|
Gb|-----------------------------------|
Db|-9---------------10----------------|
Ab|-7----------------7----------------|
Eb|-8----------------8----------------|

eb|-----------------------------------|
Bb|-----------------------------------|
Gb|-----------------------------------|
Db|-7----------------8----------------|
Ab|-5----------------5----------------|
Eb|-6----------------6----------------|


Guitar fills during Riff 4:

#1:
Guitar 1
eb|-------------------------------------|
Bb|-------------------------------------|
Gb|-------------------------------------|
Db|-------------------------------------|
Ab|-------------------------------------|
Eb|-------------------------------------|

eb|-------------------------------------|
Bb|-------------------------------------|
Gb|-------------------------------------|
Db|-------------------------------------|
Ab|-------------------------------------|
Eb|-------------------------------------|

eb|-------------------------------------|
Bb|-------------------------------------|
Gb|-------------------------------------|
Db|-------------------------------------|
Ab|-------------------------------------|
Eb|-------------------------------------|

eb|-------------------------------------|
Bb|-------------------------------------|
Gb|-------------------------------------|
Db|-------------------------------------|
Ab|-------------------------------------|
Eb|-------------------------------------|

eb|-------------------------------------|
Bb|-------------------------------------|
Gb|-------------------------------------|
Db|-------------------------------------|
Ab|-------------------------------------|
Eb|-------------------------------------|

eb|-------------------------------------|
Bb|-------------------------------------|
Gb|-------------------------------------|
Db|-------------------------------------|
Ab|-------------------------------------|
Eb|-------------------------------------|

End guitar fills over Riff 4


Riff 5
eb|---------------------------------|
Bb|---------------------------------|
Gb|---------------------------------|
Db|---------------------------------|
Ab|-2-----2-----2---2-----2-----2---|
Eb|-0-0-0-0-0-0-0-0-0-0-0-0-0-0-0-0-|
      * *   * *   *   * *   * *   *


Play Riff 1


Riff 3a
eb|------------------------------------|
Bb|------------------------------------|
Gb|------------------------------------|
Db|-------9-999------------------------|  ---------|
Ab|-7-777-------12-121210-101010-9-999-|           |
Eb|------------------------------------|           |
    * *** * ***  *  * * *  * * * * ***             |
eb|--------------------------------------------|   |-> Play 2x
Bb|--------------------------------------------|   |
Gb|--------------------------------------------|   |
Db|--------------------------------------------| --|
Ab|-12-121210-101010-9-999-5-557-777-7-777-770-|
Eb|--------------------------------------------|
    *   * * *  * * * * *** * *** *** * *** ***
eb|--------------------------------|
Bb|--------------------------------|
Gb|--------------------------------|
Db|-------7-777--------------------|
Ab|-5-555-------10-10108-888-7-777-|
Eb|--------------------------------|
    * *** * ***  *  * ** *** * ***
eb|----------------------------------------|
Bb|----------------------------------------|
Gb|----------------------------------------|
Db|----------------------------------------|
Ab|-10-10108-888-7-777-3-335-555-5-555-555-|
Eb|----------------------------------------|
    *   * ** *** * *** * *** *** * *** ***

Repeat above, then play:
eb|------------------------------------|
Bb|------------------------------------|
Gb|------------------------------------|
Db|-------9-999------------------------|
Ab|-7-777-------12-121210-101010-9-999-|
Eb|------------------------------------|
    * *** * ***  *  * * *  * * * * ***
eb|--------------------------------------------|
Bb|--------------------------------------------|
Gb|--------------------------------------------|
Db|--------------------------------------------|
Ab|-12-121210-101010-9-999-5-557-777-7-777-770-|
Eb|--------------------------------------------|
    *   * * *  * * * * *** * *** *** * *** ***


Guitar 2
eb|-------------------------------------|
Bb|-------------------------------------|
Gb|-----------7-777---------------------|
Db|-----------------10-1010-9-999-7-777-|
Ab|-10-101010---------------------------|
Eb|-------------------------------------|
    *   * * * * ***  *  * * * *** * ***
eb|----------------------------------------------------|
Bb|----------------------------------------------------|
Gb|----------------------------------------------------|
Db|-10-1010-9-999-7-777--------------------------------|
Ab|---------------------9-9910-101010-10-101010-1010-0-|
Eb|----------------------------------------------------|
    *   * * * *** * *** * ** *  * * * *   * * *  * * *

Repeat above, then play:
eb|--------------------------------------|
Bb|--------------------------------------|
Gb|--------------------------------------|
Db|-------10-101010-9-99-7-777-----------|
Ab|-9-999----------------------10-101010-|
Eb|--------------------------------------|
    * ***  *  * * * * ** * ***  *  * * *
eb|------------------------------------------|
Bb|------------------------------------------|
Gb|------------------------------------------|
Db|-9-99-7-777-------------------------------|
Ab|------------10-101010-7-779-999-9-999-999-|
Eb|------------------------------------------|
    * ** * ***  *  * * * * *** *** * *** ***

Repeat everything above, then finish with:
eb|-------------------------------------|
Bb|-------------------------------------|
Gb|-----------7-777---------------------|
Db|-----------------10-1010-9-999-7-777-|
Ab|-10-101010---------------------------|
Eb|-------------------------------------|
    *   * * * * ***  *  * * * *** * ***
eb|----------------------------------------------------|
Bb|----------------------------------------------------|
Gb|----------------------------------------------------|
Db|-10-1010-9-999-7-777--------------------------------|
Ab|---------------------9-9910-101010-10-101010-1010-0-|
Eb|----------------------------------------------------|
    *   * * * *** * *** * ** *  * * * *   * * *  * * *



Ending:
eb|---------------------------------|
Bb|---------------------------------|
Gb|---------------------------------|
Db|---------------------------------|
Ab|-2-----2-----2---2-----2-----2---|
Eb|-0-0-0-0-0-0-0-0-0-0-0-0-0-0-0-0-|
      * *   * *   *   * *   * *   *
eb|-----------------------------------|
Bb|-----------------------------------|
Gb|-----------------------------------|
Db|-----------------------------------|
Ab|-2-----2-----2---2-----2-----5--4--|
Eb|-0-0-0-0-0-0-0-0-0-0-0-0-0-0-3--2--|
      * *   * *   *   * *   * *
Comments