Demons And Wizards - Dorian Chords & Tabs

 

Dorian Chords & Tabs

Demons And Wizards Chords & Tabs

Version: 1 Type: Tab 0 ratings
1 star 2 stars 3 stars 4 stars 5 stars
comments

Dorian Tab

   
-------------------------------------------------------------------------------
			    Dorian - Demons & wizardss
-------------------------------------------------------------------------------
Tabbed by:Stuart honeyman
Email:stuart_honeyman@hotmail.co.uk
[ Tab from: http://www.guitartabs.cc/tabs/d/demons_and_wizards/dorian_tab.html ]
Tuning:standard
 for the intro and when this riff is repeated just palm mute all notes on the firt
fret and play normlly the rest.
intro:guitar 1
e|----------------------------------------------------------|
B|----------------------------------------------------------|
G|---------------2---2----2---------------------------------|
D|-4-11-4-11-4-1--11--11----1-4-3-1-3-11-3-1-3-2-1-2-11-2 1-|
A|----------------------------------------------------------|
E|----------------------------------------------------------|
repeat x8
Intro: guitar 2 
e|----------------------------------------------------------|
B|-4-------------------------------------4------------------|
G|-3-------------------------------------3------------------|
D|-1-------------------------------------1------------------|
A|----------------------------------------------------------|
E|----------------------------------------------------------|
:guitar 1
e|----------------------------------------------------------|
B|----------------------------------------------------------|
G|-------------- 2---2----2---------------------------------|
D|-4-11-4-11-4-1--11--11----1-4-3-1-3-11-3-1-3-2-1-2-11-2 1-|
A|----------------------------------------------------------|
E|----------------------------------------------------------|
 :guitar 2(follow the rythm of guitar one)
e|------------------------------------------------------------------|
B|---------5-5-5----------------------------------------------------|
G|--6-6-6--2-2-2--6\-3-3-3-3\2-2------------------------------------|
D|--4-4-4---------4\ 5-5-5-5\4-4------------------------------------|
A|------------------------------------------------------------------|
E|------------------------------------------------------------------|
verse 1:guitar 1
p.m______________________________________
"amuse me..."
e|----------------------------------------------------|
B|----------------------------------------------------|
G|----------------------------------------------------|
D|-111111111111111111-111111111111111111111-----------|
A|----------------------------------------------------|
E|----------------------------------------------------|
  guitar 2:
e|----------------------------------------------------|
B|-4---------------------------4----------------------|
G|-3---------------------------3----------------------|
D|-1---------------------------1----------------------|
A|----------------------------------------------------|
E|----------------------------------------------------|
Chorus?:guitar 1
"Dorian.."
e|----------------------------------------------------------|
B|----------------------------------------------------------|
G|---------------2---2----2---------------------------------|
D|-4-11-4-11-4-1--11--11----1-4-3-1-3-11-3-1-3-2-1-2-11-2 1-|
A|----------------------------------------------------------|
E|----------------------------------------------------------|
 :guitar 2(follow the rythm of guitar one)
e|----------------------------------------------------------|
B|---------5-5-5--------------------------------------------|
G|--6-6-6--2-2-2--6\-3-3-3-3\2-2----------------------------|
D|--4-4-4---------4\ 5-5-5-5\4-4----------------------------|
A|----------------------------------------------------------|
E|----------------------------------------------------------|
Now it changes:listen to it for rythym
e|------------------------|
B|------------------------|
G|------------------------|
D|-11-1-1--1111111111---- |
A|------------------------|
E|------------------------|
changes again repeat scond part till it picks up again
e|-----------|--------------------------------------|
B|-----------|--------------------------------------|
G|-----------|2--4--4-4 -2--2-4-4-2-2---------------|
D|--2----2--|-2--2--2-2--2--2-4-4-2-2---------------|
A|--2----2--|-0--2--2-2--0--0-2-2-0-0---------------|
E|--0----0--|---------------------------------------|

I for the life of me can't work out this reverby bit in the back grund but i think
these are some of the notes used and with a lot of reverb  you could proably sound
similar
I think its just in the c sharp minor scale
e|-------------------------------------------------------9-11-12---|
B|-------------------------------------------9-10-12---------------|
G|-----------------------------------9-11--------------------------|
D|-----------------------9-11-13-----------------------------------|
A|-----------9-11-12-----------------------------------------------|
E|--9-11-12--------------------------------------------------------|

 Livens up guitar 1 just before going back into the dorian part :
e|--------------------------|
B|--4-------4-----4--4------|
G|--3-------3-----3--3------|
D|--1-1-1-1-11-1--1---------|
A|--------------------------|
E|--------------------------|
goes back to the first change
e|----------------------------|
B|----------------------------|
G|----------------------------|
D|-11-1-1--1111111111-------- |
A|----------------------------|
E|----------------------------|

e|---------------------------|
B|--4-------4-----4--4-------
G|--3-------3-----3--3-------|
D|--1-1-1-1-11-1--1--1--------|
A|---------------------------|
E|---------------------------|
end
e|-------|
B|-------|
G|-------|
D|--4----|
A|--4----|
E|-------|

intro x 8
chorus riff(no singing ) x4
verse x 2
chorus x 2
verse x 2
chorus x2
bridge(first change) 
verse 4 (second change)
verse 5 .....
verse 6...
verse7 ....
verse 8 on last line it picks up before
chorus
bridge again
end


  slide up
| \  slide down
| h  hammer-on
| p  pull-off
| ~  vibrato
| +  harmonic
| x  Mute note
===============================================================================
Comments