Demonoid - Witchburner Chords & Tabs

 

Witchburner Chords & Tabs

Demonoid Chords & Tabs

Version: 1 Type: Tab 0 ratings
1 star 2 stars 3 stars 4 stars 5 stars
comments

Witchburner Tab

   
#----------------------------------PLEASE NOTE-----------------------------#
# This file is the author's own work and represents their interpretation  ##
# of the song. You may only use this file for private study,              ##
# scholarship, or research.                                               ##
#---------------------------------------------------------------------------##
----------------------------------------------------------------------------##
			WITCHBURNER  - Demonoid
----------------------------------------------------------------------------
Tabbed by: Ray Eicher and Jason Becker
Email: FeCross900@aol.com

Tuning: Db (Db, Gb, Cb, Fb, Ab, Db)

. - palm mute 			h - pinched harmonic
X - percussion mute 		ah - artificial harmonic
/ - slide up to			\ - slide down to
th - tap harmonic 		hr - natural harmonic
~ - vibrato 			"- tremolo picking
h - hammer on 			p - pull off
b - bend 			rb - raise bend    lb - lower bend
f - full bend 			h - half bend
t - tap with finger 		tb - tap at hieght of bend
p - pick when bent 		d - don't pick start of bend
> - accented note 		() - ghost note, sustained note
p - pre-bend 			w - use bar
hold - hold the bend
||o
||o  - repeat


Intro:

   Guitar 1:

|----------------------------------------------------------------------------|
|----------------------------------------------------------------------------|
|o---------------------------------------------------------------------------|
|o-------2---0-0-3----------------------------2---0-0-3----------------------|
|------2---2-------------7/-----------------2---2-------------7/---------5~~-|
|--0-3-------------0-5-7-----000-0-3~~--0-3-------------0-5-7----0-0-3-5-----|
|									     |
|									     |
|  Guitar 2:								     |
|  									     |
|----------------------------------------------------------------------5-----|
|----------------------------------------------------------------6---6---6---|
|o-----------------------------------------------------------------7-------7-|
|o-------2---0-0-3----------------------------2---0-0-3----------------------|
|------2---2-------------7/-----------------2---2-------------7/-------------|
|--0-3-------------0-5-7-----000-0-3~~--0-3-------------0-5-7----------------|

|---------------------------------------|
|---------------------------------------|
|---------------------------------------|
|--------2---0-0-3----------------------|
|------2---2-------------7/-------------|
|--0-3-------------0-5-7-----000-0-3~~--|
|					|
|					|
|					|
|					|
|---------------------------------------|
|---------------------------------------|
|---------------------------------------|
|--------2---0-0-3-------------------- -|
|------2---2-------------7/-------------|
|--0-3-------------0-5-7-----000-0-3~~--|


							X 2
|-----------------------------------------------------|
|-----------------------------------------------------|
|----------------------------------------------------o|
|--------2---0-0-3-----------------------------------o|
|------2---2-------------7--6-----------5-------------|
|--0-3-------------0-5-7----4-----------3-------------|
|					              |
|					              |
|					              |
|					              |
|-----------------------------------------------------|
|-------------------------------4-5-4-------3-4-3-----|
|-----------------------------4-------4---3-------3--o|
|--------2---0-0-3----------6-----------5------------o|
|------2---2-------------7----------------------------|
|--0-3-------------0-5-7------------------------------|

 Verse:


   Guitars 1 & 2

|--------------------------------------------------|
|--------------------------------------------------|
|o-------------------------------------------------|
|o---------------------------------------------6---|
|------------------------------------------5-7---7-|
|--0-0-0-0-0-0-0-0-0-0-0-0-0-0-0-0-0-0-0-0---------|


|--------------------------------------------------|
|--------------------------------------------------|
|--------------------------------------7-5-4-------|
|--------------------------------------------7-5-3-|
|--------------------------------------------------|
|--0-0-0-0-0-0-0-0-0-0-0-0-0-0-0-0-0-0-------------|


|--------------------------------------------------|
|----------------------------------------------6-5-|
|------------------------------------------5-7-----|
|--------------------------------------------------|
|--------------------------------------------------|
|--0-0-0-0-0-0-0-0-0-0-0-0-0-0-0-0-0-0-0-0---------|

							X 2
|----------------------------------------------------|
|--------------------------------------------0-1-3---|
|---------------------------------------------------o|
|--------------------------------------0-2-3--------o|
|--------------------------------0-2-3---------------|
|--0-0-0-0-0-0-0-0-0-0-0-0-0-1-3---------------------|


  Bridge:


    Gtr 1:

|----------------------------------------------------------------------------|
|----------------------------------------------------------------------------|
|----------------------------------------------------------------------------|
|-------p---2~-------p---3~---------------p--2~----3-2-1------5--------------|
|--000-3-0------000-3-0------000-3~--000-3-0-----0--------000-3--------------|
|----------------------------------------------------------------------------|
|                                                                            |
|									     |
|   Gtr 2:								     |
|									     |
|----------------------------------------------------------------------------|
|----------------------------------------------------------------------------|
|--------p--9~--------p--10~---------------p--9~------9-8--------------------|
|--777-10-7-----777-10-7-----777-10~-777-10-7----7-10------------------------|
|----------------------------------------------------------------------------|
|----------------------------------------------------------------------------|
|									     |
|								             |
|   Gtr 3:                                                                   |
|									     |
|----------------------------------------------------------------------------|
|-----------------------------------18--17~~---16~~--------------------------|
|---------------------------14--17-------------------------------------------|
|----------------------------------------------------------------------------|
|----------------------------------------------------------------------------|
|----------------------------------------------------------------------------|


|----------------------------------------------------------------------------|
|----------------------------------------------------------------------------|
|---------------------------------------------------------2-5-4-2------------|
|-------p---2~-------p---3~---------------p--2~----3-2-1----------5-3-2 -----|
|--000-3-0------000-3-0------000-3~--000-3-0-----0---------------------------|
|----------------------------------------------------------------------------|
|                                                                            |
|									     |
|   		             						     |
|									     |
|----------------------------------------------------------------------------|
|----------------------------------------------------------------------------|
|--------p--9~--------p--10~---------------p--9~------9-8--------------------|
|--777-10-7-----777-10-7-----777-10~-777-10-7----7-10------------------------|
|----------------------------------------------------------------------------|
|----------------------------------------------------------------------------|
|									     |
|								             |
|                                                                            |
|									     |
|---------------------------------------20~~--19~~--17~~---------------------|
|---------------------------17~~--20~~--------------------18~~~----17~~~-----|
|----------------------------------------------------------------------------|
|----------------------------------------------------------------------------|
|----------------------------------------------------------------------------|
|----------------------------------------------------------------------------|


   Chorus:


|--------------------------------------------------|
|--------------------------------------------------|
|o---------------------------------------2------5--|
|o-----2----------------7------2-------2------5----|
|------2-------------5--5------2-----0------3------|
|---0--0--------000--3------0--0-------------------|
|						   |
|						   |
|						   |
|						   |
|------0-----------------------0-------------------|
|------0---p-------------------0---------1------4--|
|o-----4--4-5-4----------------4-------2------5----|
|o-----------------------------------2------5------|
|--------------------------------------------------|
|---0-----------------------0----------------------|

                                                ^ you could replace the 4
                                                  with a 5. Its tough to hear.

|--------------------------------------------------|
|--------------------------------------------------|
|-------------------------------------------------o|
|------2----------------7------2------------------o|
|------2-------------5--5------2------3-2-3-2~~----|
|---0--0--------000--3------0--0------0------------|
|						   |
|						   |
|						   |
|						   |
|------0-----------------------0-------------------|
|------0---p-------------------0-------------------|
|------4--4-5-4----------------4------------------o|
|-------------------------------------------------o|
|--------------------------------------------------|
|---0-----------------------0----------------------|


{************************Repeat all parts*********************************}

  Interlude:
            There are two guitars hear but the lead guitar is a lot of
            whammy bar bends and dives.  I couldn't pick anything out
            so I just gave you the rhythm and left the
            lead blank for you to figure out.  Best of luck!

[ Tab from: http://www.guitartabs.cc/tabs/d/demonoid/witchburner_tab.html ]
|---------------------------------------------------------------------------|
|---------------------------------------------------------------------------|
|---------------------------------------------------------------------------|
|-------------1-----0-----------------------------------1-----0-------------|
|-2-----3-----1-----0-----2-----6-----5-----2-----3-----1-----0-----6--5--3-|
|-0-----1-----------------0-----4-----3-----0-----1-----------------4--3--1-|
|                                                                           |
|									    |
|									    |
|									    |
|---------------------------------------------------------------------------|
|---------------------------------------------------------------------------|
|---------------------------------------------------------------------------|
|---------------------------------------------------------------------------|
|---------------------------------------------------------------------------|
|---------------------------------------------------------------------------|

|---------------------------------------------------------------------------|
|---------------------------------------------------------------------------|
|---------------------------------------------------------------------------|
|-------------1-----0-----------------------------------1-----0-------------|
|-2-----3-----1-----0-----2-----6-----5-----2-----3-----1-----0-----6--5--3-|
|-0-----1-----------------0-----4-----3-----0-----1-----------------4--3--1-|
|                                                                           |
|									    |
|									    |
|									    |
|---------------------------------------------------------------------------|
|---------------------------------------------------------------------------|
|---------------------------------------------------------------------------|
|---------------------------------------------------------------------------|
|---------------------------------------------------------------------------|
|---------------------------------------------------------------------------|

|---------------------------------------------------------------------------|
|---------------------------------------------------------------------------|
|---------------------------------------------------------------------------|
|-------------1-----0-----------------------------------1-----0-------------|
|-2-----3-----1-----0-----2-----6-----5-----2-----3-----1-----0-----6--5--3-|
|-0-----1-----------------0-----4-----3-----0-----1-----------------4--3--1-|
|                                                                           |
|									    |
|									    |
|									    |
|---------------------------------------------------------------------------|
|---------------------------------------------------------------------------|
|---------------------------------------------------------------------------|
|---------------------------------------------------------------------------|
|---------------------------------------------------------------------------|
|---------------------------------------------------------------------------|

|---------------------------------------------------------------------------|
|---------------------------------------------------------------------------|
|---------------------------------------------------------------------------|
|-------------1-----0-----------------------------------1-----0-------------|
|-2-----3-----1-----0-----2-----6-----5-----2-----3-----1-----0-----6--5--3-|
|-0-----1-----------------0-----4-----3-----0-----1-----------------4--3--1-|
|                                                                           |
|									    |
|									    |
|									    |
|---------------------------------------------------------------------------|
|---------------------------------------------------------------------------|
|---------------------------------------------------------------------------|
|---------------------------------------------------------------------------|
|---------------------------------------------------------------------------|
|---------------------------------------------------------------------------|

   Solo:


|----------------------------------------------------------------------------|
|----------------------------------------------------------------------------|
|----------------------------------------------------------------------------|
|-2-----------------------------4---------------5----------------------------|
|-2-----------------------------2---------------3---------------5------------|
|-0-------------------------------------------------------------3------------|
|								   	     |
|									     |
|									     |
|									     |
|---------------------------------------------------------------15~~---------|
|-10-10-10-10/13--10-10-10-10/--15-15-15-15/13--15-15-15-15/17---------------|
|----------------------------------------------------------------------------|
|----------------------------------------------------------------------------|
|----------------------------------------------------------------------------|
|----------------------------------------------------------------------------|

|----------------------------------------------------------------------------|
|----------------------------------------------------------------------------|
|----------------------------------------------------------------------------|
|----------------------------------------------------4-------------5---------|
|-------3--------------------------------------------2-------------3---------|
|-------1--------------------------------------------------------------------|
|								   	     |
|									     |
|									     |
|									     |
|-24-23-22--24-22-20---------------------------------22-19--------22-20------|
|-------------p--p-------------------------------------p---20-------p--------|
|-------------------------------------------------------------19-------------|
|----------------------------------------------------------------------------|
|----------------------------------------------------------------------------|
|----------------------------------------------------------------------------|

		     ^************missing**********^


|----------------------------------------------------------------------------|
|----------------------------------------------------------------------------|
|----------------------------------------------------------------------------|
|----------------------------------------------------------------------------|
|------------5-----------------7---------------------------------------------|
|------------3-----------------5---------------------------------------------|
|									     |
|									     |
|									     |
|									     |
|-19-15-----19-15-----17-13----------13-17/22-17-13--------------------------|
|---p---15----p---15--------15----15----------------15-----------------------|
|------------------------------14----------------------14~~~~~~~~------------|
|----------------------------------------------------------------------------|
|----------------------------------------------------------------------------|
|----------------------------------------------------------------------------|

							^this note is
							extended into the
							next section (intro).


{***Intro with no repeat (once through)***}
{***Verse with no repeat (once through)***}
{***Verse with the repeat              ***}
{***Chorus with the repeat             ***}

   Ending:

   Guitar 1:

|----------------------------------------------------------------------------|
|----------------------------------------------------------------------------|
|----------------------------------------------------------------------------|
|-------2---0-0-3-----------------------------2---0-0-3----------------------|
|-----2---2-------------7/------------------2---2-------------7/----------5~~|
|-0-3-------------0-5-7-----000-0-3~~---0-3-------------0-5-7-----0-0-3-5----|
|                                                                            |
| 					                        	     |
|  Guitar 2:								     |
|									     |
|-----------------------------------------------------------------------5----|
|-----------------------------------------------------------------6---6---6--|
|-------------------------------------------------------------------7-------7|
|-------2---0-0-3-----------------------------2---0-0-3----------------------|
|-----2---2-------------7/------------------2---2-------------7/-------------|
|-0-3-------------0-5-7-----000-0-3~~---0-3-------------0-5-7----------------|


|--------------------------------------------------------------|
|--------------------------------------------------------------|
|--------------------------------------------------------------|
|-------2---0-0-3-----------------------------2---0-0-3--------|
|-----2---2-------------7/------------------2---2--------------|
|-0-3-------------0-5-7-----000-0-3~~---0-3-------------0-5-7--|
|                                                              |
| 					                       |
|  						       |
|						               |
|--------------------------------------------------------------|
|--------------------------------------------------------------|
|--------------------------------------------------------------|
|-------2---0-0-3-----------------------------2---0-0-3--------|
|-----2---2-------------7/------------------2---2--------------|
|-0-3-------------0-5-7-----000-0-3~~---0-3-------------0-5-7--|

|------------------------------|
|------------------------------|
|------------------------------|
|-2-3-2-0----------------------|
|---------3-2-0-------------0--|
|---------------5-3-2-0-2-3-0--|
|			       |
|			       |	THE END!
|			       |
|			       |
|------------------------------|
|------------------------------|
|------------------------------|
|-2-3-2-0----------------------|
|---------3-2-0-------------0--|
|---------------5-3-2-0-2-3-0--|

Questions, comments or corrections?  Please feel free to send them
to Jason Becker at FeCross900@aol.com
Thanks, and enjoy!

===============================================================================
Comments