Demon Hunter - Screams Of The Undead Chords & Tabs

 

Screams Of The Undead Chords & Tabs

Demon Hunter Chords & Tabs

Version: 1 Type: Tab 0 ratings
1 star 2 stars 3 stars 4 stars 5 stars
comments

Screams Of The Undead Tab

   
www.demonhunter.net

Artist: Demon Hunter
Title: Screams if the Undead (Track #1/10)
Album: Demon Hunter ('2002)
Transcribed by: jason johnson
Revised by :  Andrew Jackson

Tuning: Db,Ab,Db,Gb,Bb,eb

Intro 1: some effect
eb|------------------------------------------------------------------------------
Bb|------------------------------------------------------------------------------
Gb|------------------------------------------------------------------------------
Db|---5---2h3p1------------------------------------------------------------------
Ab|---5---2h3p1------------------------------------------------------------------
Db|---5---2h3p1------------------------------------------------------------------
[ Tab from: http://www.guitartabs.cc/tabs/d/demon_hunter/screams_of_the_undead_tab.html ]
intro 2/chorus:
eb|------------------------------------------------------------------------------
Bb|------------------------------------------------------------------------------
Gb|------2--------2-------2---------2--------2--------2--------2-----------------
Db|-1p0--1--1p0---1--1p0--1----1p0--1---1p0--1--1p0---1--1p0---1-----------------
Ab|-1p0--0--1p0---0--1p0--0----1p0--0---1p0--0--1p0---0--1p0---0-----------------
Db|-1p0-----1p0------1p0-------1p0------1p0-----1p0------1p0---------------------
                                                                              
intro 2/chorus: cont'd 
eb|------------------------------------------------------------------------------
Bb|------------------------------------------------------------------------------
Gb|------------------------------------------------------------------------------
Db|-3-5---2h3p1------------------------------------------------------------------
Ab|-3-5---2h3p1------------------------------------------------------------------
Db|-3-5---2h3p1------------------------------------------------------------------
  
intro 3:          
eb|------------------------------------------------------------------------------
Bb|------------------------------------------------------------------------------
Gb|-------3/4----11--------------------------------------------------------------
Db|-------x-x----11--------------------------------------------------------------
Ab|-0-----1/2-----9--------------------------------------------------------------
Db|-0----------------------------------------------------------------------------
                  ^ upstroke this one

verse:
eb|------------------------------------------------------------------------------
Bb|------------------------------------------------------------------------------
Gb|------------------------------------------------------------------------------
Db|-0-0-2-1--0-0-2-3-3-----------------------------------------------------------
Ab|-0-0-2-1--0-0-2-3-3-----------------------------------------------------------
Db|-0-0-2-1--0-0-2-3-3-----------------------------------------------------------
                                                                              
verse 2:
eb|------------------------------------------------------------------------------
Bb|------------------------------------------------------------------------------
Gb|---------------------------2--------------------------------------------------
Db|---------------------------1--------------------------------------------------
Ab|---------------------------0--------------------------------------------------
Db|-0-1p0--0-1p0--1p0-1p0-1p0----------------------------------------------------
      
                                                                        
2:50
eb|------------------------------------------------------------------------------
Bb|------------------------------------------------------------------------------
Gb|----3/4--11--9---------3/4----11---12-----------------------------------------
Db|----x-x--11--9---------x-x----11---12-----------------------------------------
Ab|-0--1/2---9--7------0--1/2-----9---10-----------------------------------------
Db|-0------------------0---------------------------------------------------------
                                                                              
outro:
eb|------------------------------------------------------------------------------
Bb|------------------------------------------------------------------------------
Gb|-2--2--2---2--2--2---2--2--2--------------------------------------------------
Db|-1--1--1---1--1--1---1--1--1---2p1p0------------------------------------------
Ab|-0--0--0---0--0--0---0--0--0-----------2p1p0----------------------------------
Db|----------------------------------------------2p1p0---------------------------
Comments