Demon Hunter - Science Of Lies Chords & Tabs

 

Science Of Lies Chords & Tabs

Demon Hunter Chords & Tabs

Version: 1 Type: Tab

Science Of Lies Tab

(------------------------------------------)
(------------------------------------------)
(-10-7--8-5--7-3--5-2----------------------) (X2)
(------------------------------------------)
(------------------------------------------)
(------------------------------------------)


(------------------------------------------)
(------------------------------------------)
(-9--9h10-9h10-----------------------------)  (X8)
(------------------------------------------)
(------------------------------------------)
(------------------------------------------)

[ Tab from: http://www.guitartabs.cc/tabs/d/demon_hunter/science_of_lies_tab.html ]
(------------------------------------------)
(------------------------------------------)
(-------14----12----10p9-------------------)
(-12-15----15----15------12p10-------13----)
(------------------------------12-13-------)
(------------------------------------------)


(-8h10p8---------------------------11------)
(--------11-10-11-10-8-6-----10-11---------)
(------------------------7-8---------------)
(------------------------------------------)
(------------------------------------------)
(------------------------------------------)

Tremelo Pick
(-10--10--11--11--10--10--11--11-----------)
(---10--10--11--11--12--12--11--11---------)
(------------------------------------------)
(------------------------------------------)
(------------------------------------------)
(------------------------------------------)

And thats all of it I'm pretty sure its all right have fun