Demon Hunter - My Throat Is An Open Grave Chords & Tabs

 

My Throat Is An Open Grave Chords & Tabs

Demon Hunter Chords & Tabs

Version: 1 Type: Tab 0 ratings
1 star 2 stars 3 stars 4 stars 5 stars
comments

My Throat Is An Open Grave Tab

Title: "My Throat Is An Open Grave"
Artist: Demon Hunter
Album: Demon Hunter
Tuning: Drop C (CGCFAD)

Riff 1- Use a chorus effect
|-------------------------------------------------------------------------------------------|
|-------------------------------------------------------------------------------------------|
|----5---4h5----5---4h5----5---4h5----5---4h5----5---4h5----5---4h5----5---4h5----5---4h5---|
|--7---7------7---7------3---3------3---3------5---5------5---5------4---4------4---4-------|
|-------------------------------------------------------------------------------------------|
|-------------------------------------------------------------------------------------------|



Riff 2- Tons of Distortion
|---------------------|--8--8--8--8--8--8--8----7--7--7--7--7--7--7--|
|---------------------|-10-10-10-10-10-10-10---10-10-10-10-10-10-10--|
|---------------------|----------------------------------------------|
|-3--3-3/---7--7-7777-|----------------------------------------------|
|-3--3-3/---7--7-7777-|----------------------------------------------|
|-3--3-3/---7--7-7777-|----------------------------------------------|

[ Tab from: http://www.guitartabs.cc/tabs/d/demon_hunter/my_throat_is_an_open_grave_tab.html ]
Play on the second time of riff 2
|--8--8--8--8--8--8--8----7--7--7--7--7-10-10--|
|-10-10-10-10-10-10-10---10-10-10-10-10-12-12--|
|----------------------------------------------|
|----------------------------------------------|
|----------------------------------------------|
|----------------------------------------------|



Riff 3
|--------------------------------------------------------------------|
|--------------------------------------------------------------------|
|---9-7------9b10r9-----9------9-9b10r9------------------------------|
|-------------------10-----10-----------9--10-9-----10p9-7-9-10/12---|
|--------------------------------------------------------------------|
|--------------------------------------------------------------------|


Outro
|----------8--8--8--8--8--8--8-----7--7--7--7--7--7--7---|
|---------10-10-10-10-10-10-10----10-10-10-10-10-10-10---|
|--------------------------------------------------------|
|-3------------------------------------------------------|
|-3------------------------------------------------------|
|-3------------------------------------------------------|
  ^let this note ring


Song Order:
Riff 1   x3
Riff 2   x3&1/2
Riff 1   x2
Riff 2   x3&1/2
Riff 3   x2
Outro    x1
Comments