Demon Hunter - Fire To My Soul Chords & Tabs

 

Fire To My Soul Chords & Tabs

Demon Hunter Chords & Tabs

Version: 1 Type: Tab

Fire To My Soul Tab

   
To all those Hunters out there, The Hunt Continues

song: Fire to my Soul
band: Demon Hunter
tuning: standard
album: Triptych
PM= .........
b= bend

okay i dont know wat makes that wierd sound in the beginnin, so ill just start from wat i kno is guitar
intro (0:10-0:36)
-----------------------------------------------------------------------------|
-----------------------------------------------------------------------------|
-------12----------4-----------11----------4---------------------------------|
-----------------------------------------------------------------------------|
---9------2--3-2-2---2-3-2-3-2----2--3-2-2---2-3-2-3-2-----------------------|
-7---7-----------------------------------------------------------------------|
      ^______________________X4_______________________^
on the last time you repeat this, dont hit the 2's and 3's after the last 4, just let the last 4 ring

pre-verse (0:36-0:42)
1515151515151515151515151516-------|
-----------------------------------|
-----------------------------------|  (X2)
-----------------------------------|
-----------------------------------|
-----------------------------------|
on this part strumm this as fast as you can. BYT those are 15's and 16's not ones and fives

verse1 (0:42-1:12)
-----------------------|
-----------------------|
-----------------------|  (X10)
-/2--/2--/2--2-2-2-2-3-|
-/2--/2--/2--2-2-2-2-3-|
-----------------------|

pre-chorus1 (1:12-1:39)
----------------------------------|
----------------------------------|
----------------------------------|  (X4)
----------------------------------|
----------------------------------|
-8--6-5-10--8-6-7-7-7-7-7-7-7-7-7-|
on the last time you repeat this,dont hit the second 6. instead strum 7 fifteen times

chorus1 (1:39-1:54)
----------------------------------------------------------------------------|
----------------------------------------------------------------------------|
--------------------12----------4-----------11----------4-------------------|
----------------------------------------------------------------------------|
2--3-2-2--2-3-2-3-2----2--3-2-2---2-3-2-3-2----2--3-2-2---2-3-2-3-2---------|
----------------------------------------------------------------------------|

----------------------------------------------------------------------------|
----------------------------------------------------------------------------|
-12----------4-----------4b-------------------------------------------------|
----------------------------------------------------------------------------|
----------------------------------------------------------------------------|
----2--3-2-2---2-3-2-3-2----------------------------------------------------|

verse2 (1:54-2:06)
---------        -----------------------|
---------        -----------------------|
---------        -----------------------|  (X2)
-0-0-0-0- (x32)  -/2--/2--/2--2-2-2-2-3-|
-0-0-0-0-        -/2--/2--/2--2-2-2-2-3-|
-0-0-0-0-        -----------------------|
 .......
[ Tab from: http://www.guitartabs.cc/tabs/d/demon_hunter/fire_to_my_soul_tab.html ]
pre-chorus2 (2:06-2:33)
----------------------------------|
----------------------------------|
----------------------------------| (X4)
----------------------------------|
----------------------------------|
-8--6-5-10--8-6-7-7-7-7-7-7-7-7-7-|
same rule applies here as it did for the first pre-chorus

chorus2 (2:33-3:00)
----------------------------------------------------------------------------|
----------------------------------------------------------------------------|
---------------------12---------4-----------11----------4-------------------|
----------------------------------------------------------------------------|
-2--3-2-2--2-3-2-3-2---2--3-2-2---2-3-2-3-2----2--3-2-2---2-3-2-3-2---------|
----------------------------------------------------------------------------|

----------------------------------------------------------------------------|
----------------------------------------------------------------------------|
-12----------------11----------4-----------12----------4--------------------|
----------------------------------------------------------------------------|
----2--3-2-2---9------2--3-2-2---2-3-2-3-2----2--3-2-2---2-3-2-3-2----------|
-------------7---7----------------------------------------------------------|

------------------------------------------------------------------------------|
------------------------------------------------------------------------------|
-11----------4-----------12---------------------------------------------------|
------------------------------------------------------------------------------|
----2--3-2-2---2-3-2-3-2----2--3-2-2---9--------------------------------------|
-------------------------------------7---7------------------------------------|

okay now, this part is played be the keyboard i think, but if you want to play along
then heres wat u play

bridge (3:00-3:24)
-15-16-16-15-15-16-18-19-|
-------------------------|
-------------------------|  (X2)
-------------------------|
-------------------------|
-------------------------|

solo (3:24-3:36)
-------------------------------------------------------|
-------------------------------------------------------|
-------------------------------------------------------|  (X2)
-10-12-13-10-8-5-10-12-13-10-8-6-10-12-10-12-9-10-9-10-|
-------------------------------------------------------|
-------------------------------------------------------|
this solo is pretty easy, but you have to do it very fast

outro (3:36-4:03)
-------------------------------------------------------------|
-------------------------------------------------------------|
-10-10-10-10-11----------4-----------12----------4-----------|
-------------------------------------------------------------|
----------------2--3-2-2---2-3-2-3-2----2--3-2-2---2-3-2-3-2-|
-------------------------------------------------------------|
             ^____________________(X4)______________________^
once again on the last time you reapeat this drop the 2's and 3's from the last "4". 
when you reach the last "4" slide it to the open string to finish the song.
well i hope you enjoyed my tab. its my first tab eva! give me any tips our suggestions 
my tab at WhiteStormee@aol.com. THE HUNT CONTINUES!