Demi Lovato - Dont Forget Chords & Tabs

 

Dont Forget Chords & Tabs

Demi Lovato Chords & Tabs

Version: 3 Type: Tab

Dont Forget Tab

   
This is the meledy *i cant spell*
Standard Tuning


E--0-0-2-4---0-0-2-4-2-0---0-0-2-4---4-7-9-7-4-2---0-0-2-4--0-4-0-2--0-4-|
B------------------------2-----------------------------------------------|
G------------------------------------------------------------------------|
D------------------------------------------------------------------------|
A------------------------------------------------------------------------|
E------------------------------------------------------------------------|

                              ^X2

chours

E-0-9-12-4-7-2-------|
B--------------------|
G--------------------|
D--------------------|      X3
A--------------------|
E--------------------|

E-0-4-0-2-0-|
B-----------|
G-----------|
D-----------|
A-----------|
E-----------|

E--0-0-2-4---0-0-2-4-2-0---0-0-2-4---4-7-9-7-4-2---0-0-2-4--0-4-0-2--0-4-|
B------------------------2-----------------------------------------------|
G------------------------------------------------------------------------|
D------------------------------------------------------------------------|
A------------------------------------------------------------------------|
E------------------------------------------------------------------------|

                              ^X2
[ Tab from: http://www.guitartabs.cc/tabs/d/demi_lovato/dont_forget_tab_ver_3.html ]
E-0-9-12-4-7-2-------|
B--------------------|
G--------------------|
D--------------------|      X3
A--------------------|
E--------------------|

E-0-4-0-2-0-|
B-----------|
G-----------|
D-----------|
A-----------|
E-----------|

CHORDS FOR BREAKDOWN THINGY: A, E, B , A, E, B


E-0-9-12-4-7-2-------|
B--------------------|
G--------------------|
D--------------------|      X3
A--------------------|
E--------------------|

E-0-4-0-2-0-4-5-4-|
B-----------------|
G-----------------|
D-----------------|
A-----------------|
E-----------------|

E--0-0-2-4---0-0-2-4-2-0---0-0-2-4---4-7-9-7-4-2---0-0-2-4--0-4-0-2--0-4-|
B------------------------2-----------------------------------------------|
G------------------------------------------------------------------------|
D------------------------------------------------------------------------|
A------------------------------------------------------------------------|
E------------------------------------------------------------------------|


E-0-9-12-4-7-2-------|
B--------------------|
G--------------------|
D--------------------|      X3
A--------------------|
E--------------------|

E-0-4-0-2-0----0-4---0-|
B----------------------|
G----------------------|
D----------------------|
A----------------------|
E----------------------|