Delux - Infatuacion Chords & Tabs

 

Infatuacion Chords & Tabs

Delux Chords & Tabs

Version: 1 Type: Bass Tab 0 ratings
1 star 2 stars 3 stars 4 stars 5 stars
comments

Infatuacion Bass Tab

Tabbed By : marioq
e-mail: lonely_guy91@hotmail.com

Tuning:standard
intro:
G|----------------------------------|
D|--------55555555------------------|
A|33333333--------------------------|
E|----------------11111111-3333333--|
cont:
G|-------------------------------------------------------------------------------|
D|----5-5-5-5--------------------------------------------------------------------|
A|3333-3-3-3-3-----33-222-----------------2222*----------------------------------|
E|------------33333------1111111-3333-5555---------------------------------------|
[ Tab from: http://www.guitartabs.cc/tabs/d/delux/infatuacion_btab.html ]
G|-------------------------------------------------------------------------------|
D|-5-----------------------------------------------------------------------------|
A|3-3----------------------------------------------------------------------------|
E|---333-333333-33-0-111-111111-111-333-3333-------------------------------------|
verso:
G|-------------------------------------------------------|
D|----------------------------------555555-333333-55555--|
A|333333---------------------3333333---------------------|
E|------333333-111111-33333------------------------------|
pre coro:
G|------------------------|
D|33333-------------------|(x2)
A|-----33333--------------|
E|----------333333-11111--|
coro:
G|-----------0h2p0----------------------------------------------------------------|
D|----------------3p0-------------------------------------------------------------|
A|333------------------33---------------------------------------------------------|
E|---00-11-33------------00-11-33-------------------------------------------------|
verso
precoro
coro
entrada a solo:
G|---------------------------------------------------------------------------|
D|---------------------------------------------------------------------------|
A|33333/-5555/-888-/ 1010101010--0-3*----------------------------------------|
E|---------------------------------------------------------------------------|
solo:
G|-9--9--9--9-10-10-10-12-12-12-10-10-10--9--9-10--9-9-9-10-10-10-12-12-12-10-10-10-9-9-10--|
D|10-10-10-10-10-10-10-10-10-10-10-10-10-10-10-10--9-9-9-9--9---9--9-9--9--9--9--9--9-9-9---|
A|------------------------------------------------------------------------------------------|
E|------------------------------------------------------------------------------------------|

G|----99---99---9------77---77--7--------------------------------------------|
D|-777--777---77-7--555--555--55---------------------------------------------|
A|---------------------------------------------------------------------------|
E|---------------------------------------------------------------------------|
coro(x1)
Comments