Dell Shanon - Runaway Chords & Tabs

 

Runaway Chords & Tabs

Dell Shanon Chords & Tabs

Version: 1 Type: Tab 0 ratings
1 star 2 stars 3 stars 4 stars 5 stars
comments

Runaway Tab

This is Runaway by Dell Shanon
this is acurate  have any comment or anything like that (maybe you want more accurate 
then email me at Destinedoutcast@hotmail.com

e------------0------------------------------------------------------------|
B---0---(0)1---(3)-0---------0(3)1-------------(1)-0-0-00-0-------------o-|
G-2---2--------------(2)0(2)-------2-(0)--(0)2----------------------------|
D---------------------------------------3---------------------------------|
A-----------------------------------------------------------------------o-|
E-------------------------------------------------------------------------|
                chorus
e-(0)(0)----------2-0---(2)-0----------(0)(0)----------2-0----------------|
B-------2-0---0-2-----2-------(2)(0)----------2-0---02-----2--------------|
G-----------2------------------------2------------2-----------------------|
D-------------------------------------------------------------------------|
A-------------------------------------------------------------------------|
E-------------------------------------------------------------------------|
[ Tab from: http://www.guitartabs.cc/tabs/d/dell_shanon/runaway_tab.html ]
e-(2)-0----------0-9-7-5-4-(2)(0)-----------0-9-7-5-4-2-0-2-0-------------|
B---------2-20---------------------2-2-0----------------------2-----------|
G--------------2-------------------------2--------------------------------|
D-------------------------------------------------------------------------|
A-------------------------------------------------------------------------|
E-------------------------------------------------------------------------|

e-(2)(0)-------------0----------------------------------------------------|
B--------2-0-------2---0-2------------------------------------------------|
G------------2---2-------------2-4-2-2---22-22-(2)-4-22-------------------|
D--------------4-----------2-4---------4----------------------------------|
A-------------------------------------------------------------------------|
E-------------------------------------------------------------------------|
     this is the accordian part made into guitar
e-4/5-4-5-----5-4-5-------5-2-3-----------------------------3-------------|
B---------5---------5---5-------2-3---------------------------------------|
G-----------5---------5-------------3-4-----------------------------------|
D---------------------------------------4-5-------------3-4---------------|
A-------------------------------------------4-5-----4-5-------------------|
E-----------------------------------------------4-5-----------------------|
                           ham. x8
e-1-0-1-----1-0-1-------1-|-0-1-0-|-----0---0---0---0---------------------|
B-------1---------1---1---|-------|-3/5---3---1---0-----------------------|
G---------2---------2-----|-------|---------------------------------------|
D-------------------------|-------|---------------------------------------|
A-------------------------|-------|---------------------------------------|
E-------------------------|-------|---------------------------------------|
                now repeat chorus
Comments