Deliverance - Jehovah Jireh Chords & Tabs

 

Jehovah Jireh Chords & Tabs

Deliverance Chords & Tabs

Version: 1 Type: Bass Tab 0 ratings
1 star 2 stars 3 stars 4 stars 5 stars
comments

Jehovah Jireh Bass Tab

   
intro
g|----------------------------------------------------------|
d|----------------------------------------------------------|
g|----------------------------------------------------------|
d#|1-0-1-0-3-5-7-9-10-12------------------------------------| four times

verse
g|----------------------------------------------------------|
d|----------------------------------------------------------|
g|2-2-2-2-2-2-2-2\9-9-9-9-9-9-9-9-7-7-7-7-5-5-5-5-2-3-5-7-9-| three times
d#|---------------------------------------------------------|

chorus
g|---------------------------------------------------------|
d|---------------------------------------------------------|
g|2-0-2-3-2-0----------------------------------------------|
d#|-----------1-3-5-7-9-10-12------------------------------|
[ Tab from: http://www.guitartabs.cc/tabs/d/deliverance/jehovah_jireh_btab.html ]
bridge
g|----------------------------------------------------------|
d|----------------------------------------------------------|
g|2-2-2-2-2-2-2-2\9-9-9-9-9-9-9-9-7-7-7-7-5-5-5-5-2-3-5-7-9-| two times
d#|---------------------------------------------------------|

bridge continued
g|---------------------------------------------------------|
d|---------------------------------------------------------|
g|2-----------2--------------------------------------------|
d#|-3-3-5-9-7---3-1-3-5-7-9-10-12--------------------------|

verse 2 times

verse, part two
g|---------------------------------------------------------------------------------|
d|---------------------------------------------------------------------------------|
g|2-2-2-2-2-2-2-2-0 sixteen times, 2 twelve times, 0-0-0-0-0-0-0-0-----------------|
d#|----------------------------------------------------------------1-3-5-7-9-10-12-|

outro
g|---------------------------------------------------------------------------------|
d|---------------------------------------------------------------------------------|
g|2-2-2-2-2-2-2-2\9-9-9-9-9-9-9-9-7-7-7-7-5-5-5-5-2-3-5-7-9,two times, 2-3-5-7-9-2-|
d#|
Comments