Delirious - Take Me Away Chords & Tabs

 

Take Me Away Chords & Tabs

Delirious Chords & Tabs

Version: 1 Type: Bass Tab 0 ratings
1 star 2 stars 3 stars 4 stars 5 stars
comments

Take Me Away Bass Tab

artist: delirious?
song: take me away
album: audiolessonover
tabbed by: damcc3

classic delirious? but a different sort of music than usual. i dont think this is
right but its the best i can do-sum1 more experienced can have a better go.
here u go:

intro(x2):
g|------------------------------------------------------
d|------------2-----------------------2-----------------
a|----4----4--------4----2----2----2--------------------
e|------------------------------------------5---4-------
[ Tab from: http://www.guitartabs.cc/tabs/d/delirious/take_me_away_btab.html ]
verse(x4):
g|------------------------------------------------------
d|----2-----------------------2-------------------------
a|----------2----3-----------------2----4---------------
e|---------------------4----------------------4---------

chorus(x4):
g|------------------------------------------------------
d|-----2-2-2--------------------2-----------------------
a|-------------4-----2-----2-2--------------------------
e|-----------------------------------5---4--------------

verse(x4)
chorus(x4)

fill-in bit(x2)
g|------------------------------------------------------
d|------------------------------------------------------
a|------------------------------------------------------
e|-----5---4---2------------------5---4---2-------------

i no this is kinda wrong but its nearly there so who cares?
corrections to damcc3@hotmail.com
Comments