Delirious - Show Me Heaven Chords & Tabs

 

Show Me Heaven Chords & Tabs

Delirious Chords & Tabs

Version: 1 Type: Bass Tab 0 ratings
1 star 2 stars 3 stars 4 stars 5 stars
comments

Show Me Heaven Bass Tab

tabbed by: damcc3
band: delirious?
song: show me heaven
album: accessd:
[ Tab from: http://www.guitartabs.cc/tabs/d/delirious/show_me_heaven_btab.html ]
g|---------------------------------------------
d|--------------------------7----5-------------
a|-7777555544443333--7757------77--7-----------
e|---------------------------------------------

g|---------------------------------------------
d|--------------------------7----5-------------
a|-7777555500000000--7757------77--7-----------
e|---------------------------------------------

any corrections or any other crap to damcc3@hotmail.com
Comments