Delirious - Promise Chords & Tabs

 

Promise Chords & Tabs

Delirious Chords & Tabs

Version: 2 Type: Tab 0 ratings
1 star 2 stars 3 stars 4 stars 5 stars
comments

Promise Tab

Artist:Delirious?
Album:King Of Fools
Song:Promise

A Tab By William Soans (snoopdog778@hotmail.com)

this song prooves it all. it is so one of delirious' best songs

Intro                          ___
E-----3----------3---3---------   |
G----3---------3----3----------   |
B-------------2----------------   |---(2x)
D----2---------------2---------   |
A-----2------------------------   |
E------------------------------___|

Verse
E----3-----3-----3-------3-----|
G-----3----3-------3----3------|
B----------2------------2------|
D----2------------2------------|
A---2------------2-------------|
E------------------------------|
[ Tab from: http://www.guitartabs.cc/tabs/d/delirious/promise_tab_ver_2.html ]
E-----3---------3----3----3----|
G------3-------3----3------3---|
B--------------------2---------|
D----2--------2------------2---|
A-----3------------------------|
E------------------------------|

Chorus                         ___
E----3------------3------3-----   |
G---3--------------3-------3---   |
B----------------2-------------   |
D-----2-----------------2------   |------(2x)
A----2-------------------------   |
E------------------------------___|

E-----3-----------3--------3---|
G----3---------3---------3-----|
B-----2------------------------|
D-------------2------------2---|
A---------------3--------------|
E------------------------------|

Bridge
E----3-----3--------3------3---|
G---3--------3-----3-----3-----|
B-------------------2----------|
D---2-------2------------2-----|
A---2--------3-----------------|
E------------------------------|

sorry,i have no idea what the solo is
God Bless.
\\//\\// ! |_ _| 1 //\\ //\\//\\
Comments