Delirious - My Glorious Chords & Tabs

 

My Glorious Chords & Tabs

Delirious Chords & Tabs

Version: 3 Type: Tab 0 ratings
1 star 2 stars 3 stars 4 stars 5 stars
comments

My Glorious Tab

   
My Glorious by Delirious
Tuning:Standard(E,A,D,G,B,E)
Tabbed by Josh Edwards


Use heavy distortion throughout the entire piece.

intro:
E------------xxxxxxx-----------xxxxxxx----------------------xxxxxxx-----|
B------2---2-xxxxxxx----2----2-xxxxxxx----------------------xxxxxxx-----|
G------2---2-xxxxxxx----2----2-xxxxxxx--7-7-7-7-7-7\4-4-4-4-xxxxxxx-----|
D------2---2-xxxxxxx----2----2-xxxxxxx--7-7-7-7-7-7\4-4-4-4-xxxxxxx-----|
A------x---x-xxxxxxx----x----x-xxxxxxx--5-5-5-5h4-4\2-2-2-2-xxxxxxx-----|
E---0h22-0h2-xxxxxxx-0h22--0h2-xxxxxxx----------------------xxxxxxx-----|

verse: Same thing as the intro but palm-mute it.
[ Tab from: http://www.guitartabs.cc/tabs/d/delirious/my_glorious_tab_ver_3.html ]
bridge:
E-----------------------------------------------------------------------|
B-----------------------------------------------------------------------|
G---77777777777777777777777\444444444444--------------------------------|
D---77777777777777777777777\444444444444--------------------------------|
A---55555555555h44444444444\222222222222--------------------------------|
E-----------------------------------------------------------------------|

chorus:
E-5~~~~~-x-------2~~~~~-x--0-0-x-5~~~~-x------2~~~~-x--0-0--x-x-x-x-x-x-|
B-5~~~~~-x-------2~~~~~-x--0-0-x-5~~~~-x------2~~~~-x--0-0--x-x-x-x-x-x-|
G-6~~~~~-4~~~~~~\2~~~~~-x--1-1-x-6~~~~-4~~~~\-2~~~~-x--1-1--x-x-x-x-x-x-|
D-7~~~~~-2~~~~~~\4~~~~~-x--2-2-x-7~~~~-2~~~~\-4~~~~-x--2-2--x-x-x-x-x-x-|
A-7~~~~~-x-------4~~~~~-x--2-2-x-7~~~~-x------4~~~~-x--2-2--x-x-x-x-x-x-|
E-5~~~~~-4~~~~~~\2~~~~~-x--0-0-x-5~~~~-4~~~~\-2~~~~-x--0-0--x-x-x-x-x-x-|


Outro: Same thing as the intro but instead of muting use harmonics in the 2nd fret!

song order:

intro x2
verse x2
bridge x1
chorus x2
intro x1
verse x2
bridge x1
chorus x3
intro x2
Comments