Delirious - My Glorious Chords & Tabs

 

My Glorious Chords & Tabs

Delirious Chords & Tabs

Version: 1 Type: Tab 0 ratings
1 star 2 stars 3 stars 4 stars 5 stars
comments

My Glorious Tab

artist:delirious
song:  my glorious
6:30 4/30/03 tabbed by nic dryden

standard tuning

(very distorted; or whatever effect,it'll still sounds good) 

intro:
E---------------------------------------------------------------------
B---------------------------------------------------------------------
G-----------------------------------7777xx/6-4444xxxx-----------------
D-----44-7-7xxxxxxx---44-7-7xxxxxxx-7777xx/6-4444xxxx------x2---------
A-----44-7-7xxxxxxx---44-7-7xxxxxxx-5555xx/4-2222xxxx-----------------
E---0h22-5-5xxxxxxx-0h22-5-5xxxxxxx-----------------------------------

verse: 

E---------------------------------------------------------------------
B---------------------------------------------------------------------
G--------------7~~~~~~~~~~4~~~~~~~~~~~--------------------------------
D---4~~~~~~~~~~7~~~~~~~~~~4~~~~~~~~~~~---------------x2---------------
A---4~~~~~~~~~~5~~~~~~~~~~2~~~~~~~~~~~--------------------------------
E---2~~~~~~~~~~-------------------------------------------------------
[ Tab from: http://www.guitartabs.cc/tabs/d/delirious/my_glorious_tab.html ]
bridge: (palm-mute all this stuff)(listen to the song to find out how many
                                   notes "exactly")  
E---------------------------------------------------------------------
B---------------------------------------------------------------------
G---77777777777-----------444444444444--------------------------------
D---7777777777777777777777444444444444--------------------------------
A---5555555555544444444444222222222222--------------------------------
E---------------------------------------------------------------------

chorus:

E---------------------------------------------------------------------
B---------------------------------------------------------------------
G-----------9999999977777777------------------------------------------
D---77777777999999997777777777777777-----------x2---------------------
A---77777777777777775555555577777777----------------------------------
E---55555555----------------55555555----------------------------------


song order: 

intro x2
verse x2
bridge x1
chorus x2
intro x1
verse x2
bridge x1
chorus x3
intro x2
Comments