Delirious - I Could Sing Of Your Love Forever Chords & Tabs

 

I Could Sing Of Your Love Forever Chords & Tabs

Delirious Chords & Tabs

Version: 1 Type: Tab

I Could Sing Of Your Love Forever Tab

   
----------------------------------------------------------------------------
             I could sing of your love forever - Delirious
----------------------------------------------------------------------------
Tabbed by:  Nath
    Email:  nathanjrb_89@hotmail.com

   Tuning:  Standard, CAPO THIRD.

This song is really easy and its pretty much played with a D chord throughout.
I tabbed it from the video on this site,
http://www3.youtube.com/watch?v=qDt65Kq-J5s&search=delirious. Its probably not that
as i found it hard to tell which guitar was which so i have only done the intro, however you
really just make it up! I have done the best i can, i've only been playing 6 months now. 
things that you think should be different, leave a comment! Im only 16!
[ Tab from: http://www.guitartabs.cc/tabs/d/delirious/i_could_sing_of_your_love_forever_tab.html ]
Intro:
  D
e|-2-----------------------------------------------------------------------|
B|-------3-----3--3-----3-----------------3--------------3-----3--3----3---|
G|----2-----2--------2-----2-----2-----3--------------------2--------------|
D|-------------0--------------0-----0-----0-----0-----0--------------0---0-|
A|-------------------------0-----------------0-----0-----------------------|
E|-------------------------------------------------------------------------|

e|-------------------------2-----------------------------------------------|
B|-------------------------3-----------------------------------------------|
G|-2--------------2-----2--------------------------------------------------|
D|-------0-----0-----0-----0-----------------------------------------------|
A|----0--0--0--------------------------------------------------------------|
E|----0--------------------------------------------------------------------|

| /  slide up
|   slide down
| h  hammer-on
| p  pull-off
| ~  vibrato
| +  harmonic
| x  Mute note
============================================================================