Delillos - Suser Avgarde Chords & Tabs

 

Suser Avgarde Chords & Tabs

Delillos Chords & Tabs

Version: 1 Type: Tab 0 ratings
1 star 2 stars 3 stars 4 stars 5 stars
comments

Suser Avgarde Tab

   
DeLillos - Suser avgårde
==========================

Band : De Lillos
Album: Suser av gårde
Music: Lars Lillo Steenberg
Text : Lars Lillo Steenberg
Tab  : Thomas Teigland, thomas_teigland@yahoo.com

This is my second DeLillos tab. It's from the first
DeLillos album from 1986, with the same title -
"Suser avgårde". Enjoy!

--- 

Verse:
    D
e-------------------------------------------------
B-----3----3----3----3----3-----------------------
G-----2----2----2h4--2----2----0-0h2p0------------
D---0----0----0---------0----0----------4---------
A-------------------------------------------------
E-------------------------------------------------
    
    B
e-------------------------------------------------
B-------------------------------------------------
G-----4----4----0--4----4-------------------------
D-----4----4-------4----4-----2--2h4p2--0---------
A---2----2----2-------2---2---0-------------------
E-------------------------------------------------

Chorus:
    D         G            A
e-------------------------------------------------
B-----3----------3------------2--2h3p2-0----------
G-------2----------0--------2------------2--------
D---0-----0----------0----------------------------
A-------------------------0-----------------------
E-------------3-----------------------------------
[ Tab from: http://www.guitartabs.cc/tabs/d/delillos/suser_avgarde_tab.html ]
    D         G            A
e-------------------------------------------------
B-----3----------3------------2--2h3p2-0----------
G-------2----------0--------2------------2--------
D---0-----0----------0----------------------------
A-------------------------0-----------------------
E-------------3-----------------------------------

    Em          F#m          Bm
e------------------------------------2------------
B-----------0-----------2------------3-----3-2----
G-----------0-----------2--------4---4---------4--
D-------2---2-------4---4------4------------------
A-----2-----------4----------2--------------------
E---0-----------2---------------------------------


    Em          A            D    G    A
e----------------------------2----3----0----------
B-----------0----------2-----3----3----2----------
G-----------0-------2--2-----2----0----2----------
D-------2---2-----2----2-----0----0----2----------
A-----2---------0-----------------2----0----------
E---0-----------------------------3---------------

Bridge:
    Bm
e---------2---------2---------2---------2---------
B-----3---------3---------3---------3-------------
G-------4---------4---------4---------4-----------
D-----------------------0---------2---------------
A---2---------4-----------------------------------
E-------------------------------------------------

    Bm                                   D   G   A
e---------2--------2--------2--------2---2---3---0
B-----3--------3--------3--------3-------3---3---2
G-------4--------4--------4--------4-----2---0---2
D---------------------0--------2---------0---0---2
A---2--------4-------------------------------2---0
E--------------------------------------------3----

The order of the song is like follows:

Verse (x4)
Chorus
Verse (x4)
Chorus
Bridge
Verse (x4)
Chorus 
Repeat 2 last lines of chorus until song ends

Thats it, enjoy!

- EOF -
Comments