Del The Funky Homosapian - If You Must Chords & Tabs

 

If You Must Chords & Tabs

Del The Funky Homosapian Chords & Tabs

Version: 1 Type: Bass Tab 0 ratings
1 star 2 stars 3 stars 4 stars 5 stars
comments

If You Must Bass Tab

artist del the funky homosapian
song if you must
track 9 on tony hawks pro skater 3

g|-------------|-------------|
d|-------------|-------------|
a|-----------5-|-----------5-|
e|-0-3-5-3-0---|-0-3-5-3-0---|


START OFF ABOUT 5 SECONDS THROUGH THE SONG AND
JUST REPEAT THROUGH THE REST OF THE SONG

[ Tab from: http://www.guitartabs.cc/tabs/d/del_the_funky_homosapian/if_you_must_btab.html ]
g|-------------|-------------|
d|-------------|-------------|
a|-----------5-|-----------5-|
e|-0-3-5-3-0---|-0-3-5-3-0---|

g|-------------|-------------|
d|-------------|-------------|
a|-----------5-|-----------5-|
e|-0-3-5-3-0---|-0-3-5-3-0---|


g|-------------|-------------|
d|-------------|-------------|
a|-----------5-|-----------5-|
e|-0-3-5-3-0---|-0-3-5-3-0---|
Comments