Deja Voodoo - Your Boyfriend Sucks Chords & Tabs

 

Your Boyfriend Sucks Chords & Tabs

Deja Voodoo Chords & Tabs

Version: 1 Type: Tab 0 ratings
1 star 2 stars 3 stars 4 stars 5 stars
comments

Your Boyfriend Sucks Tab

******************************************************************************
                     Your Boyfriend Sucks - DEJA VOODOO
******************************************************************************
www.dejavoodoo.co.nz
Another great song but another great new zealad band.
Just Play the main riff heaps of times then the bridge then play the main riff
somemore then finnish with the bridge again.
Listen to the song first:
    http://www.backofthey.co.nz/mp3/YourBoyfriendSucks.mp3

Main Riff:
e|---------------------------------------------------------------------------|
B|---------------------------------------------------------------------------|
G|--------5--------------------------5------777------------------------------|
D|-5-7--7-5-7--7-5-7--7-------5-7--7-5-7--7-777-7----------------------------|
A|-5-7--7-3-7--7-5-7--7-------5-7--7-3-7--7-555-7----------------------------|
E|-3-5--5---5--5-3-5--5-------3-5--5---5--5-----5----------------------------|

[ Tab from: http://www.guitartabs.cc/tabs/d/deja_voodoo/your_boyfriend_sucks_tab.html ]
Bridge:									   x4
e|---------------------------------------------------------------------------|
B|---------------------------------------------------------------------------|
G|--555-77777----------------------------------------------------------------|
D|--555-77777----------------------------------------------------------------|
A|--333-55555----------------------------------------------------------------|
E|---------------------------------------------------------------------------|

Your boyfriends sucks why don't you go out with me \
that guys a dick and you are so sexy.               \
ill buy you beers until you agree                    | Main Riff
your boyfriend sucks                                /
why not go out with me                             /

your boyfriend sucks                               |Bridge
your boyfriend sucks                              /

your boyfriend sucks why dont you go out with me  \
ive got the looks and i got heaps of weed          | Main Riff
I heard his favourite band was minuit             /
your boyfriend sucks why dont you go out with me /

your boyfriend sucks                              | Bridge
your boyfriend sucks                             /
Comments