Deja Voodoo - We Are Deja Voodoo Chords & Tabs

 

We Are Deja Voodoo Chords & Tabs

Deja Voodoo Chords & Tabs

Version: 1 Type: Tab 0 ratings
1 star 2 stars 3 stars 4 stars 5 stars
comments

We Are Deja Voodoo Tab

   
-------------------------------------------------------------------------------
			     We Are Deja Voodoo - DEJA VOODOO
-------------------------------------------------------------------------------
Offical Page:http://www.backofthey.co.nz/dejavoodoo.htm

Tabbed by:Robert Morgan
Email:Evil_snowman@hotmail.com


*This is the tab from there there first EP "Havent I Heard This Shit Somewhere
 Before".The version from there new album is a bit diffrent.


   Intro
e|---------------------------------------------------------------------------|
B|---------------------------------------------------------------------------|
G|---------------------------------------------------------------------------|
D|---------------------------------------------------------------------------|
A|-00----00------------------------------------------------------------------|
E|----00----00-11-00-11-00---------------------------------------------------|

   Verse
e|---------------------------------------------------------------------------|
B|---------------------------------------------------------------------------|
G|---------------------------------------------------------------------------|
D|-2-2-------2-2-------------------------------------------------------------|
A|-0-0--2-2--0-0--2-2--3-3--2-2--3-3--2-2------------------------------------|
E|------0-0-------0-0--1-1--0-0--1-1--0-0------------------------------------|

   Pre-Chorus
e|---------------------------------------------------------------------------|
B|---------------------------------------------------------------------------|
G|---------------------------------------------------------------------------|
D|-2-2-2-2------5-5-5-5------7-7-7-7------9--9--9----------------------------|
A|-0-0-0-0------3-3-3-3------5-5-5-5------7--7--7----------------------------|
E|---------------------------------------------------------------------------|
[ Tab from: http://www.guitartabs.cc/tabs/d/deja_voodoo/we_are_deja_voodoo_tab.html ]
   Chorus
e|---------------------------------------------------------------------------|
B|---------------------------------------------------------------------------|
G|---------------------------------------------------------------------------|
D|-9-9-9-9--6-9-9-9----------------------------------------------------------|
A|-7-7-7-7--8/7-7-7----------------------------------------------------------|
E|---------------------------------------------------------------------------|

   Solo
e|---------------------------------------------------------------------------|
B|---------------------------------------------------------------------------|
G|---------------------------------------------------------------------------|
D|-7-7-7--5--4--3-2-3-2-3-2----7-7-7--5--4--3-2-3-2-3-2----------------------|
A|---------------------------------------------------------------------------|
E|---------------------------------------------------------------------------|

e|---------------------------------------------------------------------------|
B|---------------------------------------------------------------------------|
G|-------------------------------------7-6-7-6-7-6-7-6-----------------------|
D|-7-7-7--5--4--3-2-3-2-3-2----6-6-6-6---------------------------------------|
A|---------------------------------------------------------------------------|
E|---------------------------------------------------------------------------|

Order:Intro x2                                  | /  slide up
      Verse x4                       		| \  slide down
      Pre-Chorus x2				| h  hammer-on
      Chourus x4				| p  pull-off
      Solo					| ~  vibrato
      Verse x4					| +  harmonic
      Pre-Chorus x2				| x  Mute Note
      Chorus x4
      Solo(Dirffrent from the wrriten 1
           but you can just play whats there)
      Pre-Chorus x2
      Chorus x2
===============================================================================
Comments