Deja Voodoo - This Ring Chords & Tabs

 

This Ring Chords & Tabs

Deja Voodoo Chords & Tabs

Version: 1 Type: Tab 0 ratings
1 star 2 stars 3 stars 4 stars 5 stars
comments

This Ring Tab

-------------------------------------------------------------------------------
		This Ring(Is Driving Me Crazy) - DEJA VOODOO
-------------------------------------------------------------------------------

Tabbed by:Robert Morgan
Email:Evil_snowman1@hotmail.com


   Intro
e|-------------------------|-------------------------|-------------------------|
B|-7-7-7-7-----------------|-5-5-5-5-----------------|-8-8-8-8-----------------|
G|---------7-7-7-7---------|---------6-6-6-6---------|---------7-7-7-7---------|
D|-----------------7-7-7-7-|-----------------7-7-7-7-|-----------------5-5-5-5-|
A|-------------------------|-------------------------|-------------------------|
E|-------------------------|-------------------------|-------------------------|

e|-------------------------|-------------------------|-------------------------|
B|-------------------------|-------------------------|-------------------------|
G|-7-----------------------|-7-----------------------|-------------------------|
D|-5-----------------------|-7-----------------------|-7-----------------------|
A|-------------------------|-5-----------------------|-7-----------------------|
E|------------3-2-0--3-2-0-|-------------------------|-5-----------------------|

e|-------------------------|-------------------------|
B|-------------------------|-------------------------|
G|-------------------------|-------------------------|
D|-5-----------------------|-5-----------------------|
A|-5-----------------------|-5-----------------------|
E|-3-----------------------|-3----------3-2-0--3-2-0-|


   Verse
e|-------------------------|-------------------------|-------------------------|
B|-------------------------|-------------------------|-------------------------|
G|-7-7-7-7-7-7-7-7-7-7-7-7-|-------------------------|-------------------------|
D|-7-7-7-7-7-7-7-7-7-7-7-7-|-7-7-7-7-7-7-7-7-7-7-7-7-|-5-5-5-5-5-5-5-5-5-5-5-5-|
A|-5-5-5-5-5-5-5-5-5-5-5-5-|-7-7-7-7-7-7-7-7-7-7-7-7-|-5-5-5-5-5-5-5-5-5-5-5-5-|
E|-------------------------|-5-5-5-5-5-5-5-5-5-5-5-5-|-3-3-3-3-3-3-3-3-3-3-3-3-|

e|-------------------------|
B|-------------------------|
G|-------------------------|
D|-5-----------------------|
A|-5-----------------------|
E|-3----------3-2-0--3-2-0-|

[ Tab from: http://www.guitartabs.cc/tabs/d/deja_voodoo/this_ring_tab.html ]
   Chorus- Release each chord, marked with a *, after you strum it.
e|-------------------------|-------------------------|-------------------------|
B|-------------------------|-------------------------|-------------------------|
G|-------------------------|-------------------------|-------------------------|
D|-------------------------|-------------------------|-------------------------|
A|-5--5--5--5---7--7--7--7-|-7--7--7--7---7--7--7--7-|-5--5--5--5---7--7--7--7-|
E|-3--3--3--3---5--5--5--5-|-5--5--5--5---5--5--5--5-|-3--3--3--3---5--5--5--5-|
   *  *  *  *   *  *  *  *   *  *  *  *   *  *  *  *   *  *  *  *   *  *  *  *
e|-------------------------|-------------------------|-------------------------|
B|-------------------------|-------------------------|-------------------------|
G|-------------------------|-------------------------|-------------------------|
D|-------------------------|-------------------------|-------------------------|
A|-7--7--7--7---7--7--7--7-|--7777----7777----7777---|-7777--------------------|
E|-5--5--5--5---5--5--5--5-|--5555----5555----5555---|-5555--------------------|
   *  *  *  *   *  *  *  *

    #BASS SOLO#

    #REPEAT VERSE#

    #REPEAT CHORUS#
			      
    
   Outro
e|-------------------------|-------------------------|-------------------------|
B|-7-7-7-7-----------------|-5-5-5-5-----------------|-8-8-8-8-----------------|
G|---------7-7-7-7---------|---------6-6-6-6---------|---------7-7-7-7---------|
D|-----------------7-7-7-7-|-----------------7-7-7-7-|-----------------5-5-5-5-|
A|-------------------------|-------------------------|-------------------------|
E|-------------------------|-------------------------|-------------------------|
   
e|-------------------------|-------------------------|-------------------------|
B|-------------------------|-7-7-7-7-----------------|-5-5-5-5-----------------|
G|-7-----------------------|---------7-7-7-7---------|---------6-6-6-6---------|
D|-5-----------------------|-----------------7-7-7-7-|-----------------7-7-7-7-|
A|-------------------------|-------------------------|-------------------------|
E|------------3-2-0--3-2-0-|-------------------------|-------------------------|

e|-------------------------|-------------------------|-------------------------|
B|-8-8-8-8-----------------|-------------------------|-------------------------|
G|---------7-7-7-7---------|-7-----------------------|-----------------------7-|
D|-----------------5-5-5-5-|-5-----------------------|-----------------------7-|
A|-------------------------|-------------------------|-----------------------5-|
E|-------------------------|------------3-2-0--3-2-0-|-3-2-0--3-2-0------------|



===============================================================================
Comments