Deja Voodoo - Jack The Ripper Chords & Tabs

 

Jack The Ripper Chords & Tabs

Deja Voodoo Chords & Tabs

Version: 1 Type: Tab 0 ratings
1 star 2 stars 3 stars 4 stars 5 stars
comments

Jack The Ripper Tab

Jack the Ripper
De Ja Voodoo
Big Ups to my running crew. Bruce and Tyrone Jackson.

Standard tuning


Riff 1/ Intro x 4
|-----------------------------------------------------------|
|-----------------------------------------------------------|
|-----------------------------------------------------------|
|--------------------------------5-4------------------------|
|---2-22-3--2-22-5--2-22-7--2-22-3-2------------------------|
|---0-00-1--0-00-3--0-00-5--0-00----------------------------|

 PM ....    ....    ....    ....

Palm mute open chords, strum down, down, up...


|-----------------------------------------------------------------|
|-----------------------------------------------------------------|
|-----------------------------------------------------------------|
|---------------------------5-4-------------------9-9-9-9-9-9-9-9-|
|---2-2-2-2-2-2-2-2-2-2-2-2-3-2---2-2-2-2-2-2-2-2-7-7-7-7-7-7-7-7-|
|---0-0-0-0-0-0-0-0-0-0-0-0-------0-0-0-0-0-0-0-0-----------------|

 PM .......................	  ................. slowly release


Riff 2 / Chorus x 2
|-----------------------------------------------------------|
|-----------------------------------------------------------|
|-----------------------------------------------------------|
|-------9------5------3------2------------------------------|
|---2-2-7--2-2-3--2-2-1--2-2-0------------------------------|
|---0-0----0-0----0-0----0-0--------------------------------|

PM  ...    ...    ...    ...


|-------------------------------|-------------12~~~~~~~~~~--|
|-------------------------------|---------------------------|
|-------------------------------|--9~~~~~~~~~---------------|
|-------------------------------|---------------------------|
|-------7------3------1------0--|---------------------------|
|---0-0----0-0----0-0----0-0----|---------------------------|

PM  ...    ...    ...    ...	   Lead in background

[ Tab from: http://www.guitartabs.cc/tabs/d/deja_voodoo/jack_the_ripper_tab.html ]
|-----------------------------------------------------------|
|-----------------------------------------------------------|
|-----------------------------------------------------------|
|--------9------5------3------2-----------------------------|
|---2-22-7--2-2-3--2-2-1--2-2-0-----------------------------|
|---0-00----0-0----0-0----0-0-------------------------------|

 PM ....    ....    ....    ....

   strum down, down, up (for first E chords)

Verse x 6 	 Fills  A	B
|-------------------|-------|-------|
|-------------------|-------|-------|
|-----0---0---0-----|-------|-------|
|-------------------|-2h3p0-|-33-22-|
|----2-2-3-3-3-3----|-------|-11-00-|
|---0---0---0---0-0-|-------|-------|

End with fill A 5 times then B at tha end


Outro Riff
|-----------------------------------------------------------------|
|-----------------------------------------------------------------|
|-----------------------------------------------------------------|
|-----------------------------------------------------------------|
|---2-2-2-2-2-2-2-2-2-2-2-2-2-2-2-2-2-2-2-2-----------------------|
|---0-0-0-0-0-0-0-0-0-0-0-0-0-0-0-0-0-0-0-0-----------------------|

 PM .................................... slowly release

|-------------------------------|----------------------------|--------|
|-------------------------------|----------------------------|--------|
|-------------------------------|----------------------------|--------|
|---------------------------5-4-|------------------------5-4-|-5-4----|
|---------------------------3-2-|------------------------3-2-|-3-2-2--|
|---0-0-1-0-3-0-5-0-5-5-5-5-----|--00-1p0-3p0-5p0-5-5-5-5----|-----0--|

   First part play pretty slow,  Second part play extremely fast


I'm sure you can work out the structure by listening to the song.
Theirs also a solo at the end that i can't be bothered working out...

Back of the Y, is Master Piece Television. Danny Parker Rules...
Comments