Deicide - When Satan Rules His World Chords & Tabs

 

When Satan Rules His World Chords & Tabs

Deicide Chords & Tabs

Version: 2 Type: Tab 0 ratings
1 star 2 stars 3 stars 4 stars 5 stars
comments

When Satan Rules His World Tab

   
/---------------------------------------------------------------------------/
/    The following is the author's own interpretation of the song, to be    /
/                     used for private use and studying                     /
/---------------------------------------------------------------------------/

                   DEICIDE - WHEN SATAN RULES HIS WORLD
                     From the Album ONCE UPON THE CROSS
                   Copyright 1995 ROADRUNNER RECORDINGS

                         Version 666 - DECEMBER 2004

Transcribed by: death8699

For Questions, Comments, Newest Version, or Corrections contact
 death8699: at MethylinInfo@aol.com

Check Out Death Warp, With More Transcriptions On It:
 http://www.deathwarp.com/

..  - palm mute          /  - slide up to
 \  - slide down to      ~  - vibrato
 h  - hammer on          b  - bend
 p  - pull off            Suffixes for bend
                          ph - pinch harmonic
                           f - full bend    h - half bend
*  - see comment           r - release      t - tap bend
X  - percussion mute       ~ - vibrato bend
@  - slight palm mute     () - ghost note, sustained note

Tune Gtr to E-Flat

--WHEN SATAN RULES HIS WORLD--

 |Riff A|
||-------------------------------------------------------------------------|
||-------------------------------------------------------------------------|
||*------------------------------------------------------------------------| 
||*------------------------------------------------------------------------|
||-2-2-2-2-2-2-------------5-5-5-5-5-5-0--2--3--2-2-2-2-2-2----------------|
||-------------2-2-2-2-2-2----------------------------------2-2-2-2-2-2----|
|| . . . . . . . . . . . . . . . . . . .  .  .  . . . . . . . . . . . .    |
||-------------------------------------------------------------------------|
||-------------------------------------------------------------------------|
||-------------------------------------------------------------------------| 
||-------------------------------------------------------------------------|
||-3-3-3-3-3-3-1-1-1-1-1-1-2-2-2-2-2-2-------------5-5-5-5-5-5-0--2--3-----|
||-------------------------------------2-2-2-2-2-2-------------------------|
   . . . . . . . . . . . . . . . . . . . . . . . . . . . . . . .  .  .

 |-------------------------------------------------------------------------|
 |-------------------------------------------------------------------------|
 |-------------------------------------------------------------------------|
 |-------------------------------------------------------------------------|
 |-2-2-2-2-2-2-------------------------------------2-2-2-2-2-2-------------|
 |-------------2-2-2-2-2-2-1-1-1-1-1-1-4-4-4-4-4-4-------------2-2-2-2-2-2-|
 | . . . . . . . . . . . . . . . . . . . . . . . . . . . . . . . . . . . . |
 |-------------------------------------------------------------------------|
 |-------------------------------------------------------------------------|
 |-------------------------------------------------------------------------| 
 |-------------------------------------------------------------------------|
 |-5-5-5-5-5-5-0--2--3--2-2-2-2-2-2-------------3-3-3-3-3-3-1-1-1-1-1-1----|
 |----------------------------------2-2-2-2-2-2----------------------------|
   . . . . . . .  .  .  . . . . . . . . . . . . . . . . . . . . . . . .

 |-------------------------------------------------------------------------||
 |-------------------------------------------------------------------------||
 |-------------------------------------------------------------------------||
 |-------------------------------------------------------------------------||
 |-2-2-2-2-2-2-------------5-5-5-5-5-5-0--2--3--2-2-2-2-2-2----------------||
 |-------------2-2-2-2-2-2----------------------------------2-2-2-2-2-2----||
 | . . . . . . . . . . . . . . . . . . .  .  .  . . . . . . . . . . . .    ||
 |-------------------------------------------------------------------------||
 |-------------------------------------------------------------------------||
 |------------------------------------------------------------------------*||
 |------------------------------------------------------------------------*||
 |-------------------------------------------------------------------------||
 |-1-1-1-1-1-1-0-0-0-0-0-0-------------------------------------------------||
   . . . . . . . . . . . .


Play Riff A a total of one time.

[ Tab from: http://www.guitartabs.cc/tabs/d/deicide/when_satan_rules_his_world_tab_ver_2.html ]
 |Riff B|
||-----------------------------------|-----------------------------------||
||-----------------------------------|-----------------------------------||
||*----------------------------------|----------------------------------*||
||*----------------------------------|----------------------------------*||
||-3\2--------3--5--6\5-----3--4--5--|-3\2--------3--5--6\5-----3--4--5--||
||-1\0--0--0--1--3--4\3--0--1--2--3--|-1\0--0--0--1--3--4\3--0--1--2--3--||
||  sl  .  .  .  .   sl  .  .  .  .     sl  .  .  .  .   sl  .  .  .  .  ||
||-----------------------------------|-----------------------------------||
||-----------------------------------|-----------------------------------||
||*----------------------------------|----------------------------------*||
||*----------------------------------|----------------------------------*||
||-3\2-------------------------------|-3\2--------3--5--6\5-----3--4--5--||
||-1\0-------------------------------|-1\0--0--0--1--3--4\3--0--1--2--3--||
    sl                                  sl  .  .  .  .   sl  .  .  .  .


Play Riff B a total of one time.


 |Riff B.1|
||-----------------------------------|-----------------------------------||
||-----------------------------------|-----------------------------------||
||*----------------------------------|----------------------------------*||
||*----------------------------------|----------------------------------*||
||-3\2--------3--5--6\5-----3--4--5--|-3\2--------3--5--6\5-----3--4--5--||
||-1\0--0--0--1--3--4\3--0--1--2--3--|-1\0--0--0--1--3--4\3--0--1--2--3--||
    sl  .  .  .  .   sl  .  .  .  .     sl  .  .  .  .   sl  .  .  .  .


Play Riff B a total of five times.


 |Riff C|
||----------------------------------|----------------------------------||
||----------------------------------|----------------------------------||
||*---------------------------------|---------------------------------*||
||*------------------------------6--|-------------------------------6-*||
||-3-----4--5-----5--8--7-----5--4--|-3-----4--5-----5--8--7-----5--4--||
||-1--0--2--3--0--3--6--5--0--3-----|-1--0--2--3--0--3--6--5--0--3-----||
   .  .  .  .  .  .  .  .  .  .       .  .  .  .  .  .  .  .  .  .


Play Riff C a total of two times.
Play Riff B a total of four times.
Play Riff C a total of two times.
Play Riff A a total of one time.


 |Riff D|
||---------------------|---------------------|---------------------|
||---------------------|---------------------|---------------------|
||*--------------------|---------------------|---------------------|
||*-----2"---0"--------|------3"---0"--------|------2"---0"--------|
||---------------------|---------------------|---------------------|
||-0"-------------1"---|-0"-------------1"---|-0"-------------1"---|
|| .    .    .    .    | .    .    .    .      .    .    .    .
||---------------------||
||---------------------||
||--------------------*||
||--------------------*||
||-5"----7"-3"----5"---||
||-3"----5"-1"----3"---||


Play Riff D a total of four times.


|Riff E|
|-------------------------------------|----------------------------------------|
|-------------------------------------|----------------------------------------|
|*------------------------------------|----------------------------------------|
|*------------------------------------|----------------------------------------|
|-2-----2--3--------------------------|-2-----6--3--2--------------------------|
|-0--0--0--1--1-1-1-1-1-1-1-1-1-1-1-1-|-0--0--4--1--0--0-0-0-0-0-0-0-0-0-0-0-0-|
|             . . . . . . . . . . . .                  . . . . . . . . . . . . |
|-------------------------------------|----------------------------------------|
|-------------------------------------|----------------------------------------|
|-------------------------------------|---------------------------------------*|
|-------------------------------------|---------------------------------------*|
|-2-----6--3--------------------------|-2-----2--3--2--------------------------|
|-0--0--4--1--1-1-1-1-1-1-1-1-1-1-1-1-|-0--0--0--1--0--0-0-0-0-0-0-0-0-0-0-0-0-|
              . . . . . . . . . . . .                  . . . . . . . . . . . .

Play Riff E   a total of two times.
Play Riff D   a total of four times.
Play Riff B   a total of one time.
Play Riff B.1 a total of five times.
Play Riff C   a total of two times.
End on C# chord!

Check Out Death Warp, With More Transcriptions On It:
 http://www.deathwarp.com/
Comments