Deicide - Vengeance Will Be Mine Chords & Tabs

 

Vengeance Will Be Mine Chords & Tabs

Deicide Chords & Tabs

Version: 1 Type: Tab 0 ratings
1 star 2 stars 3 stars 4 stars 5 stars
comments

Vengeance Will Be Mine Tab

   
                        DEICIDE - VENGEANCE WILL BE MINE
                        From the Album IN TORMENT IN HELL
                        Copyright 2001 ROADRUNNER RECORDS
                        Version 1.0 - SEPTEMBER 2001

Transcribed by: death8699

For Questions, Comments, Newest Version, or Corrections contact
death8699: at unhollowed@aol.com

Check Out Death Warp, With More Transcriptions On It:
http://www.sorrowsend.com/DeathWarp

Tablature Notation
------------------
.  - palm mute                  /  - slide up to
\  - slide down to              ~  - vibrato
h  - hammer on                  b  - bend
p  - pull off                   Suffixes for bend
ph - pinch harmonic             f - full bend    h - half bend
*  - see comment                r - release      t - tap bend
X  - percussion mute            ~ - vibrato bend
@  - slight palm mute           () - ghost note, sustained note

Tune Gtr to D

VENGEANCE WILL BE MINE

*Riff A
|--------------------------------------------------------------------|
|--------------------------------------------------------------------|
|--------------------------------------------3333--------------------|Gtr
|------00001111------3333------00001111----------------00001111------| I
|-2222----------2222------2222----------2222------2222----------2222-|
|--------------------------------------------------------------------|
|
|
|--------------------------------------------------------------------|
|--------------------------------------------------------------------|
|--------------------------------------------------------------------|Gtr
|--------------------3-----------------------8-----------------------| II
|--------------------1-----------------------6-----------------------|
|--------------------------------------------------------------------|
|
|
|                    1,3&5----|2&4--|6.-----|
|-----------------------------|-----|-------|
|-----------------------------|-----|-------|
|-----------------------------|-----|-------|Gtr
|-3333------00001111----------|-----|-------| I
|------2222-------------------|-5-3-|-5-3---|
|--------------------33331111-|-3-1-|-3-1---|
|                                     .
|
|-----------------------------|
|-----------------------------|
|-----------------------------|Gtr
|-3---------------------------| II
|-1-------------------5---3---|
|---------------------3---1---|
                      .


*Second guitar comes in at the end of the first riff first playing
G5 and F5 then the rest of the chords listed.


[ Tab from: http://www.guitartabs.cc/tabs/d/deicide/vengeance_will_be_mine_tab.html ]
Riff B
|-------------------------------------------------------------|
|-------------------------------------------------------------|
|-------------------------------------------------------------|Gtr
|-------------5\4----------8\7-----------------------8\7-10---| I
|---------5\4-3\2----------6\5----------8\7----------6\5-8----|
|-0000000-3\2-----00000000-----00000000-6\5-00000000----------|
| .......         ........     ........     ........
|
|                                                         2tx
|------------------------------------------------------------|
|------------------------------------------------------------|
|------------------------------------------------------------|Gtr
|-------------5\4----------8\7-----------------------8\7-10--| II
|---------5\4-3\2----------6\5----------8\7----------6\5-8---|
|---------3\2---------------------------6\5------------------|


Riff B 6tx (both guitars)


Riff C                                                      5tx
|--------------------------------------------------------------|
|--------------------------------------------------------------|
|------------------------------2-1-----------------------------|
|------------------------2---3---------------------------2-3---|
|------------------2-4-5---------------------------2-4-5-------|
|-0000000000000000-----------------000000000000000-------------|
  ................ . . .           ............... . . .


Riff D                                           8tx
|---------------------------------------------------|
|---------------------------------------------------|
|---------------------------------------------------|
|----------6666777799998888---------------------1---|
|-55556666------------------77776666------------1---|
|------------------------------------22221111-0-----|
                                              .

Riff A 1tx
Riff B 6tx
Riff C 5tx
Riff D 8tx


Ending
|--------------------------------------------------------------------|
|--------------------------------------------------------------------|
|--------------------------------------------3333--------------------|Gtr
|------00001111------3333------00001111----------------00001111------| I
|-2222----------2222------2222----------2222------2222----------2222-|
|--------------------------------------------------------------------|
|
|
|------------------------|
|------------------------|
|------------------------|Gtr
|-3333------00001111-----| I
|------2222----------5-3-|
|--------------------3-1-|
|                    .
|
|
|------------------------|
|------------------------|
|------------------------|Gtr
|------------------------| II
|--------------------5-3-|
|--------------------3-1-|
                     .


Check Out Death Warp, With More Transcriptions On It:
http://www.sorrowsend.com/DeathWarp
Comments