Deicide - Trifixion Chords & Tabs

 

Trifixion Chords & Tabs

Deicide Chords & Tabs

Version: 1 Type: Tab 0 ratings
1 star 2 stars 3 stars 4 stars 5 stars
comments

Trifixion Tab

                     DEICIDE - TRIFIXION
                    From the Album LEGION
               Copyright 1992 ROADRUNNER RECORDS

                    Version 2.0 - JULY 2001

Transcribed by: death8699

For Questions, Comments, Newest Version, or Corrections contact
 death8699: at death8699@prodigy.net

Check Out DEATH8699.COM With More Transcriptions at:
 http://www.death8699.com

Check Out Death Warp, With More Transcriptions On It:
 http://tiger.towson.edu/~dalvis1

..  - palm mute          /  - slide up to
 \  - slide down to      ~  - vibrato
 h  - hammer on          b  - bend
 p  - pull off            Suffixes for bend
                          ph - pinch harmonic
                           f - full bend    h - half bend
*  - see comment           r - release      t - tap bend
X  - percussion mute       ~ - vibrato bend
@  - slight palm mute     () - ghost note, sustained note

Tune Gtr to E

TRIFIXION

Riff 1                                                      1.----|2.-----|
|-----------------------------------------------------------------|-------|
|-----------------------------------------------------------------|-------|                                             
|-----------------------------------------------------------------|-------|
|-----------------------------------------------------------------|-------|
|-0h1-----0-------0h1-----0---3---0h1-----0-------0h1-----0-0-1-3-|-0-3-1-|
|-----0-3---0-3-2-----0-3---0---0-----0-3---0-3-2-----0-3---------|-------|
      . .   . . .     . .   .   .     . .   . . .     . .   . . .   . . .


Riff 1 .5tx


Next
|-----------------|
|-----------------|
|-----------------|
|-----------------|
|---3p2---2h3---3-|
|-1-----1-----1---|
  .     .     .

[ Tab from: http://www.guitartabs.cc/tabs/d/deicide/trifixion_tab.html ]
Riff 2                           4tx
|-----------------------------------|
|-----------------------------------|
|-----------------------------------|
|-----------------------------------|
|---5-2-----3-2-----5-2-------------|
|-0-----4-0-----3-0-----4-0-4-3-2-1-|
  .     . .     . .     . . . . . .


Riff 3                       2tx
|-------------------------------|
|-------------------------------|
|-------------------------------|
|-------------------------------|
|---3p2---2---2h3---3p2---2---2-|
|-1-----0---1-----1-----0---0---|
  .     .   .     .     .   .


Riff 2 4tx
Riff 3 2tx


Riff 4                          8tx
|----------------------------------|
|----------------------------------|
|----------------------------------|
|----------------------------------|
|------77776666---6p5---5p4--------|
|-0000---------77----66-----55-4h5-|


          
Riff 5                       4tx
|-------------------------------|
|-------------------------------|
|-------------------------------|
|------------------------6-7h8--|
|------6p5------5p4-------------|
|-0000-----0000-----0000--------|


Riff 6                                              4tx
|------------------------------------------------------|
|------------------------------------------------------|
|------------------------------------------------------|
|------------------------------------------------------|
|------------------------------------------------------|
|-2-3-4-3-4-5-2-3-4-4-5-6-2-3-4-3-4-5-4-5-6-5-6-7-6666-|
  . . . . . . . . . . . . . . . . . . . . . . . . ....


Riff 7                                1.-------|2.-------|
|----------------------------------------------|---------|
|----------------------------------------------|---------|
|----------------------------------------------|---------|  
|----------------------------------------------|---------|
|-0h1-----0---0h1-----0---0h1-----0---333-1-0--|-333-0-1-|
|-----0-3---0-----0-3---0-----0-3---0----------|---------|
      . .   .     . .   .     . .   . ... . .    ... . . 


Riff 7 1tx
Riff 1 2tx
Riff 6 4tx
Riff 4 8tx
Riff 5 4tx
End.


Check Out Death Warp, With More Transcriptions On It:
 http://tiger.towson.edu/~dalvis1

Check Out DEATH8699.COM With More Transcriptions at:
 http://www.death8699.com
Comments