Deicide - The Truth Above Chords & Tabs

 

The Truth Above Chords & Tabs

Deicide Chords & Tabs

Version: 1 Type: Tab 0 ratings
1 star 2 stars 3 stars 4 stars 5 stars
comments

The Truth Above Tab

song:   THE TRUTH ABOVE
band:   DEICIDE
record: SERPENTS OF THE LIGHT

by João Henrique S. Alcântara (17/Male/Brasília-BRAZIL)
mail: joechaosgenocida@yahoo.com

Well this is the first tab I make in my life so excuse any mistakes.
The rythm guitar is all here, I didn't tab the solos because they're too
difficult for me.
Tune the guitar half step below (sixth string is a D#).
Listen to the song and you'll easily put together these parts I wrote:
(I didn't put the palm muttings, because it's almost entire palm
mutted).

-----------------------------------|-----------------------------------------------------------
-----------------------------------|-----------------------------------------------------------
-----------------------------------|-----------------------------------------------------------
-5-4-------4-3-------3-2-----------|-----------------------------------------------------------
-3-2-------2-1-------1-0-------4-5-|-3-3-3-2-2-------2-2-2-1-1-------1-1-1-0-0-----------------
-----0-0-0-----0-0-0-----0-0-0-2-3-|-----------0-0-0-----------0-0-0-----------0-0-0-2-2-2-3-3-
[ Tab from: http://www.guitartabs.cc/tabs/d/deicide/the_truth_above_tab.html ]
-----------------------------------------------------
-----------------------------------------------------
-----------------------------------------------------
-----------------------------------------------------
-3-3-3-2-2-------2-2-2-1-1-------1-1-1-0-0-------3-2-
-----------0-0-0-----------0-0-0-----------0-2-3-----

-----------------------------------------------------------------------
-----------------------------------------------------------------------
-----------------------------------------------------------------------
-------------------------------------------------------------10-10-9-9-
---------8-8-7-7---------10-10-8-8---------8-8-7-7-10-10-8-8-----------
-0-0-0-0---------0-0-0-0-----------0-0-0-0-----------------------------

-------------------------------------------------------------------
-------------------------------------------------------------------
-------------------------------------------------------------------
-------------------------------------------------------------------
---------8-8-7-7---------10-10-8-8---------3-3-2-2-5-5-3-3---------
-0-0-0-0---------0-0-0-0-----------0-0-0-0-----------------3-3-1-1-

-----------------------------------------------------------------
-----------------------------------------------------------------
-----------------------------------------------------------------
-----------------------------------------------------------------
-----------------------------------------3-3-3-3-2-2-2-2-1-1-0-0-
-0-0-0-0-1-1-1-1-4-4-4-4-3-3-2-2-1-1-1-1-------------------------

THRASH/BLACK/DOOM/DEATH METAL IS THE LAW
Comments