Deicide - Serpents Of The Light Chords & Tabs

 

Serpents Of The Light Chords & Tabs

Deicide Chords & Tabs

Version: 1 Type: Tab 0 ratings
1 star 2 stars 3 stars 4 stars 5 stars
comments

Serpents Of The Light Tab

   
Title:serpents of the light(solo)
Artist:deicide
Album:serpents of the light

Version 1.1

Tabbed by sytry
Send any comments or corrections to: sytry@lombardiacom.it

============================================================================
Notation: b = full bend         / = slide up            a.h. = artificial
          r = release		\ = slide down		       harmonic	
          ~ = vibrato		h = hammer-on		tr = trillo
	  . = palm mute(pm)	p = pull-off            t = tapping  
         ^=depress bar        "= tremolo pick
============================================================================                             
Tuning: Eb Bb Gb Db Ab Eb



|----------------------------------7^-8^-11^-12^-11^-8^-7^------------------|
|---------------------------9^-10^-------------------------10^-9^-----------|
|-----------------7^-9^-10^---------------------------------------10^-9^-7^-|
|-------6^-9^-10^-----------------------------------------------------------|
|-7^-8^---------------------------------------------------------------------|
|---------------------------------------------------------------------------|


[ Tab from: http://www.guitartabs.cc/tabs/d/deicide/serpents_of_the_light_tab.html ]
|---------------------------------------------------------------------------|
|-------------------------------------------9-10----------------------------|
|------------------------------------7-9-10---------10-9-7------------------|
|-10^-9^-6^-------------------6-9-10-----------------------10-9-6-9-10------|
|-----------8^-7^-8a.h.---7-8-------------------------------------------8-7-|
|---------------------------------------------------------------------------|
                       very fast               "


|---------------------------14--------------------------8-13p8----------8---|
|---------------------9-10------10-9-----------------10--------10----10-----|
|-------------7-9-10------------------10-9-7------11--------------11--------|
|----6-9-10-----------------------------------------------------------------|
|-8-------------------------------------------------------------------------|
|---------------------------------------------------------------------------|
                             " 


|-13p8----------8-13p8--13p9------------------------------------------------|
|------10----10--------------11---------------------------------------------|
|---------11--------------------10------------------------------------------|
|---------------------------------------------------------------------------|
|---------------------------------------------------------------------------|
|---------------------------------------------------------------------------|


that's all...send comments or corretction to sytry@lombardiacom.it
Comments