Deicide - Sacraficial Suicide Chords & Tabs

 

Sacraficial Suicide Chords & Tabs

Deicide Chords & Tabs

Version: 2 Type: Bass Tab 0 ratings
1 star 2 stars 3 stars 4 stars 5 stars
comments

Sacraficial Suicide Bass Tab

DEICIDE
SACRAFICIAL SUICIDE
BASS

INTRO - Standard Tuning
Cymbal Lead in
|--------------------------------------------------|
|--------------------------------------------------| 
|--------------------------------------------------|
|00000000000000000000000000000000000000000000000000|



      
|-----------------------------------||------------- 
|-----------------------------------||------------- 
|-7-----7-10p8p7---7----7---0-------||-------------
|---000------------------000--------||-8--8-8-8--8-

[ Tab from: http://www.guitartabs.cc/tabs/d/deicide/sacraficial_suicide_btab_ver_2.html ]
Play this bar 3x  Fill 1
|-------------|-------------------------------| |------------------|
|-------------|-------------------------------| |------------------| 
|-------------|-------------------------------| |-777666555443-----| 
|-0-000-0-0-0-|-0-000-0-000-0-000--0-0-0------| |-------------4----| 



VERSE
|---------------------------------------|| (4x) 
|---------------------------------------||
|--12-12---9--9------\7-\5--0-1---------||
|---------------------------------------||



|----------------------------|| (4x)
|----------------------------||
|--------------5-5\4\1-------||
|-0-00-0000-0----------------||

CHORUS
 (4x) 
|---------------------------------------------------------||
|---------------------------------------------------------|| 
|---------------------------------------------------------|| 
|--3--2--1--0-00---3--2--1---0-00--3--2--1---0-00----6-7--||

By David Clément

Comments