Deicide - Once Upon The Cross Chords & Tabs

 

Once Upon The Cross Chords & Tabs

Deicide Chords & Tabs

Version: 1 Type: Bass Tab 0 ratings
1 star 2 stars 3 stars 4 stars 5 stars
comments

Once Upon The Cross Bass Tab

DEICIDE
ONCE UPON THE CROSS

INTRO RIFF
|--------------------------------------------------------------------------------|
|-----------33333-22222----------------------------------------------33333-------|
|----------------------33333-22222------------------------22222------------22222-|
|-2-1-1-0-0------------------------33333-22222-3333-22222-------33333------------|
[ Tab from: http://www.guitartabs.cc/tabs/d/deicide/once_upon_the_cross_btab.html ]
RIFF 2
|----------------------------------------------------|
|----------------------------------------------------|
|----------2-3---------0-2---------2-3-------3-2-0---|
|--0-2-3-0-----0-2-3-0-----0-2-3-0-----0-2-3---------|

RIFF 3
 (feaar him...)
|----------------------------------------|
|----------------------------------------|
|----------------------REPEAT-16-TIMES---|
|--11111-00000-3-5-----------------------|

CHORUS RIFF
|--------------------------------------------|
|--------------------------------------------|
|--------------------55555-------------33333-|
|--00000-22222-33333-------33333-00000-------|

RIFF 4
|-------------------------------------|
|-------------------------------------|
|----------4-33333-----------3-11111--|
|--2-0-2-3---------0-2-0-2-3----------|

By David Clément


Comments